Song name
# A B C D E F G H I J K L M N O P Q R S T U V W X Y Z

Freelance Whales - Location tab

-------------------------------------------------------------------------------
                            LOCATION - Freelance Whales
-------------------------------------------------------------------------------
Tabbed by: Spencer
E-mail: sbanders27@gmail.com

Tuning: Standard
Key: C# Major

Verse

e|-------------------------------------------------|
B|-----------------------------2-----2-----2-----2-|
G|-----6-----6-----6-----6---3-----3-----3-----3---|
D|---6-----6-----6-----6---4-----4-----4-----4-----|
A|-4-----4-----4-----4-----------------------------|
E|-------------------------------------------------|

e|-------------------------------------------------|
B|-------------------------------------------------|
G|-----6-----6-----6-----6-----6-----6-----6-----6-|
D|---6-----6-----6-----6-----6-----6-----6-----6---|
A|-4-----4-----4-----4-----6-----6-----6-----6-----|
E|-------------------------------------------------|

Play through the above progression twice. Then:

e|-------------------------------------------------|
B|-------------------------------------------------|
G|-------------------------------------------------|
D|-----4-----4-----4-----4-----4-----4-----4-----4-|
A|---4-----4-----4-----4-----4-----4-----4-----4---|
E|-2-----2-----2-----2-----2-----2-----2-----2-----|

e|-------------------------------------------------|
B|-------------------------------------------------|
G|-----6-----6-----6-----6-----6-----6-----6-----6-|
D|---6-----6-----6-----6-----6-----6-----6-----6---|
A|-4-----4-----4-----4-----4-----4-----4-----4-----|
E|-------------------------------------------------|

Chorus:

e|-------------------------------------------------|
B|-------------------------------------------------|
G|-------------------------------------------------|
D|-----3-----3-----3-----3-----3-----3-----3-----3-|
A|---3-----3-----3-----3-----3-----3-----3-----3---|
E|-1-----1-----1-----1-----1-----1-----1-----1-----|

e|-------------------------------------------------|
B|-------------------------------------------------|
G|-------------------------------------------------|
D|-----4-----4-----4-----4-----4-----4-----4-----4-|
A|---4-----4-----4-----4-----4-----4-----4-----4---|
E|-2-----2-----2-----2-----2-----2-----2-----2-----|

e|-------------------------------------------------|
B|-------------------------------------------------|
G|-----6-----6-----6-----6-----6-----6-----6-----6-|
D|---6-----6-----6-----6-----6-----6-----6-----6---|
A|-4-----4-----4-----4-----4-----4-----4-----4-----|
E|-------------------------------------------------|

The solo should be easy enough for you to figure out solo.

Email me with comments, requests or corrections. 

************************************

| /   slide up
| \   slide down
| h   hammer-on
| p   pull-off
| ~   vibrato
| +   harmonic
| x   Mute note
| b   Bend
| pb  Pre-bend
| br  Bend release
| pbr Pre-bend release
| brb Bend release bend

************************************
Tap to rate this tab
# A B C D E F G H I J K L M N O P Q R S T U V W X Y Z