Song name
# A B C D E F G H I J K L M N O P Q R S T U V W X Y Z

Freemason - Obediance tab

SONG:Obediance 
   ARTIST: mason    
    ALBUM: 
  WEBSITE: 

     TYPE: Guitar Tablature
TABBED BY: Charlie Davis
    EMAIL: PNDsquire05@aol.com
COMMENTS: It's Easy but its lotsa fun to play

intro:
e:-------------------------------------------------------------------------------
b:-------------------------------------------------------------------------------
g:-------------------------------------------------------------------------------
d:-------------------------------------------------------------------------------
a:------7--------7---------7-------9-p-7-----------------------------------------
e:-0--0-----0--0-----0--0------0-0-----------------------------------------------

verse:(play the main part 4times switching endings every time)
e:-------------------------------------|---|---|----|------|------------------------------
b:-------------------------------------|---|---|----|------|------------------------------
g:-------------------------------------|---|---|----|------|------------------------------
d:-------------------------------------|---|---|----|------|------------------------------
a:-7-7---7----7-7---7----7-7---7---7-7-|-11|-9-|-11-|-2222-|------------------------------
e:-5-5---5----5-5---5----5-5---5---5-5-|-9-|-7-|-9--|-0000-|------------------------------

chorus is the same as the intro

solo:
e:-------------------------------------------------------------------------------
b:-------------------------------------------------------------------------------
g:-------------------------------------------------------------------------------
d:--------------------------------------------12---------------------------------
a:-12-12--15---12-12--15---12-12--15---12-12-------------------------------------
e:-------------------------------------------------------------------------------
Tap to rate this tab
 
# A B C D E F G H I J K L M N O P Q R S T U V W X Y Z