Song name
# A B C D E F G H I J K L M N O P Q R S T U V W X Y Z

Freemason - Wasted Oppurtunity tab

SONG: Wasted Oppurtunity 
   ARTIST: Freemason 
    ALBUM: 
  WEBSITE: 

     TYPE: Guitar Tablature
TABBED BY: Charlie Davis
    EMAIL: PNDsquire05@aol.com 
COMMENTS: Drop D 

intro:
e:--------------------------------0--|------------------------------------
b:--------------------------------3--|------------------------------------
g:--------------------------------2--|------------------------------------
d:--0--0---3-p-0------5-h-7-------0x4|------------------------------------
a:--0--0---3-p-0------5-h-7-------0--|------------------------------------
d:--0--0---3-p-0------5-h-7----------|--(3)(3)(3)-------------------------

verse:
e:------------------------------------------------------------------------
b:------------------------------------------------------------------------
g:------------------------------------------------------------------------
d:-0-0--------------------------------------------------------------------
a:-0-0------0------0------0-----------------------------------------------
e:-0-0--7-p-0--5-p-0--3-p-0-----------------------------------------------

chorus:
e:------------------------------------------------------------------------
b:----------------------7-s-5---------------------------------------------
g:-2-2------------------7-s-5---------------------------------------------
d:-0-0---3-p-0--5-h-7---7-s-5---------------------------------------------
a:-0-0---3-p-0--5-h-7-----------------------------------------------------
e:-0-0---3-p-0--5-h-7-----------------------------------------------------

Bridge:
e:-------------------------|----------------------------------------------
b:-------------------------|----------------------------------------------
g:-------------------------|----------3-----------------------------------
d:-0-0-3-p-0---0-0-5-p-0---|----------3-----------------------------------
a:-0-0-3-p-0---0-0-5-p-0-x4|-5--5--5--3-----------------------------------
e:-0-0-3-p-0---0-0-5-p-0---|-5--5--5--3-----------------------------------
Tap to rate this tab
 
# A B C D E F G H I J K L M N O P Q R S T U V W X Y Z