Guitaretab - guitar tabs
Song name
# A B C D E F G H I J K L M N O P Q R S T U V W X Y Z

Freemason - Speedy Gerbil tab

     SONG: Speedy Gerbil
   ARTIST: Mason
    ALBUM: Demo 1
  WEBSITE: 

     TYPE: Guitar Tablature
TABBED BY: Charlie Davis 
    EMAIL: PNDsquire05@aol.com
COMMENTS: 

intro:(flanger, and distortion)
e:--12--13------12----|--10--11-----10-----|---------------------------------
b:----------13--------|----------11--------|---------------------------------
g:--------------------|--------------------|---------------------------------
d:-----------------x4-|------------------x4|-----x2--------------------------
a:--------------------|--------------------|---------------------------------
e:--------------------|--------------------|---------------------------------
[ Tab from: http://www.guitaretab.com/f/freemason/30374.html ]
Chorus:palm mute the "E's"(distortion)
e:-------------------------------------------------------------------------------
b:-------------------------------------------------------------------------------
g:------------------4---6-------------------------4------------------------------
d:---2--2-2-----2---5---7-------2--2-2-----2---2--4------------------------------
a:---2--2-2-----2---5---7-------2--2-2-----2---0--2------------------------------
e:-3p0--0-0---3p0---3---5-----3p0--0-0---3p0-------------------------------------

verse:(flanger)
e:-------------------------------------------------------------------------------
b:-------------------------------------------------------------------------------
g:-------------------------------------------------------------------------------
d:-------------------------------------------------------------------------------
a:--7777---3333------------------------------------------------------------------
e:---------------3333----2-3-2-0-------------------------------------------------

bridge:
e:-------------------------------------------------------------------------------
b:-------------------------------------------------------------------------------
g:--9--9---------0---------------------------------------------------------------
d:--x--x---------x-------x4------------------------------------------------------
a:--7--7---xxxx--7---------------------------------------------------------------
e:--0--0---xxxx--0-xx------------------------------------------------------------
Related for Speedy Gerbil tab
×
Speedy Gerbil