Song name
# A B C D E F G H I J K L M N O P Q R S T U V W X Y Z

Freemason - Class System tab

Band:mason
Album:demo
Song:Class System
Tuning:drop D
Effects:distortion and wahwah

intro(part 1):
e|--0---|---------|----------------------------------------------------------|
B|--3---|---------|----------------------------------------------------------|
G|--2---|---------|----------------------------------------------------------|
D|------|----0----|----------------------------------------------------------|
A|------|----0----|----------------------------------------------------------|
E|------|----0----|--------0-0--(3)(3)(3)(3)--0-0--(3)(3)(3)(3)(3)(3)(3)(3)--|

intro(part 2):
e|---------------------------------------------------------------------------|
B|---------------------------------------------------------------------------|
G|---------------------------------------------------------------------------|
D|--0-0------0----0-0------0----0-0------0----1h3s5p3------------------------|
A|--0-0--3p--0----0-0--5p--0----0-0--3p--0----1h3s5p3------------------------|
E|--0-0--3p--0----0-0--5p--0----0-0--3p--0----1h3s5p3------------------------|

verse:palm muted
e|---------------------------------------------------------------------------|
B|---------------------------------------------------------------------------|
G|---------------------------------------------------------------------------|
D|---------------------------------------------------------------------------|
A|-------------------------3-------------3-----------------------------------|
E|-0000---3-0-0---5-0-0------0-0----1-3-----3--------------------------------|

Chorus:
e|---------------------------------------------------------------------------|
B|---------------------------------------------------------------------------|
G|---------------------------------------------------------------------------|
D|-0-0---3h5----0-0---5p3----0-0---3p0---7777--------------------------------|
A|-0-0---3h5----0-0---5p3----0-0---3p0---7777--------------------------------|
E|-0-0---3h5----0-0---5p3----0-0---3p0---7777--------------------------------|

Bridge:(just slowly work the wahwah back and forth)
e|---------------------------------------------------------------------------|
B|---------------------------------------------------------------------------|
G|---------------------------------------------------------------------------|
D|-0-0-----0-------------------0-0---5p0-------------------------------------|
A|-x-0-----x-----0-0-----0-----0-0---5p0-------------------------------------|
E|-0-0---3p0-----0-0---7p0-----0-0---5p0-------------------------------------|
Tap to rate this tab
# A B C D E F G H I J K L M N O P Q R S T U V W X Y Z