Song name
# A B C D E F G H I J K L M N O P Q R S T U V W X Y Z

Freestyle - Sa Ayaw Mot Sa Gusto tab

SA AYAW MO'T SA GUSTO by Freestyle

INTRO: E-C#m-F#m-B (2x)

VERSE: E-C#m-F#m-B
Ayoko na sanang umibig pang muli
Lalo na't kakagaling lang sa pagkasawi
Di na mabilang ilang ulit na akong nabigo
Parang bata na napaso sa apoy na hindi matuto-tuto

REFRAIN: C#m-G#m-F#m--
Ngunit nang makita ka'y hindi alam ang gagawin
Ininiwasan ka ngunit nagpapapansin
Mahulog man ako'y baka wala lang mapala
Pinipilit na panindigan na ayaw ko na

CHORUS: A-G#m-;(3x) F#m-A-B
Ngunit di na ako makapigil
Oh heto na naman ako
Oh ako'y nanggigigil
Napapamahal na sa iyo... sa ayaw mo't sa gusto

E-C#m-F#m-B (2x)

VERSE: E-C#m-F#m-B
Lagi-lagi nalang tuwing ika'y dumaraan, lumulukso'ng tibok ng puso ko
Gusto ko ba o ayaw na, oh ako'y litong-lito

REFRAIN: C#m-G#m-F#m--
Ngunit t'wing makita ka'y hindi alam ang gagawin
Iniiwasan ka pero nagpapapansin
Oh Diyos ko baka wala ring mapala
Pinipilit na panindigan na ayaw ko na

CHORUS: A-G#m-;(3x) F#m-A-B
Ngunit di na ako makapigil
Oh heto na naman ako
Oh ako'y nanggigigil
Napapamahal na sa iyo... sa ayaw mo't sa gusto

ADLIB: E-C#m-F#m-B

|-----------------------------------------------------------|
|-------14-14/17-17-14----14/17-17-14-----------14----------|
|-13-16----------------16--------------16-13-16-----13\11\9-|
|-----------------------------------------------------------|
|-----------------------------------------------------------|
|-----------------------------------------------------------|

|-12----12----12~----12---19b-17p16-17p16-17p16-17-19--------|
|----14----14-----14---14------------------------------------|
|------------------------------------------------------------|
|------------------------------------------------------------|
|------------------------------------------------------------|
|------------------------------------------------------------|

|-14h15-14-12------------------/21~-19\----------------------|
|-----------------12-14-12--12-------------------------------|
|--------------13--------------------------------------------|
|------------------------------------------------------------|
|------------------------------------------------------------|
|------------------------------------------------------------|

BRIDGE:	C#m-F#m-B-; (2x) C#m-G#m-A-B

CHORUS: B-Bm-;(3x) G#m-B-C#
Ngunit di na ako makapigil
Oh heto na naman ako
Oh ako'y nanggigigil
NAPAPAMAHAL NA SA IYO... sa ayaw mo't sa gusto

NITRAM
(-_-)zzz
Tap to rate this tab
# A B C D E F G H I J K L M N O P Q R S T U V W X Y Z