Song name
# A B C D E F G H I J K L M N O P Q R S T U V W X Y Z

Freestyle - Dont Stop The Rock tab

----------------------------------------------------------------------------
	              DON'T STOP THE ROCK - Freestyle
----------------------------------------------------------------------------
This is the immense intro from the Cadbury ad - enjoy.

Tabbed by: Chris Colyer
Email: csc501@myway.com

Tuning: Standard

Opening Riff:
e|--13---13---13-13-15-16-15--13---13---13-13-15-16-15-----|
B|---------------------------------------------------------|
G|---------------------------------------------------------|
D|---------------------------------------------------------|
A|---------------------------------------------------------|
E|---------------------------------------------------------|
....
e|--11--11-11-11-11-11---13--13--13-13-13-13---------------|
B|--------------------13-----------------------------------|
G|---------------------------------------------------------|
D|---------------------------------------------------------|
A|---------------------------------------------------------|
E|---------------------------------------------------------|
Play Twice

Then:
e|-----20---15-15h16p15h16p15----20-15-15h16p15h16-----|
B|--18-----------------------18-------------------18---|
G|-----------------------------------------------------|
D|-----------------------------------------------------|
A|-----------------------------------------------------|
E|-----------------------------------------------------|
...
e|--11-15-15h6p15h16p15p13---11--11--8h11p8h11-13------|
B|-----------------------------------------------------|
G|-----------------------------------------------------|
D|-----------------------------------------------------|
A|-----------------------------------------------------|
E|-----------------------------------------------------|

Then play both the parts above together, and repeat.

Finally (plays once only):
e|11-13---13-20-18-16-15-15--18--------15-15-18------16-15-13--------------|
B|-----------------------------16---------------16-16----------------------|
G|-------------------------------------------------------------------------|
D|-------------------------------------------------------------------------|
A|-------------------------------------------------------------------------|
E|-------------------------------------------------------------------------|

End of Intro:
(There's a party in the house and we'll be rocking tonight..)

It's really all about the intro, and it's repeated several times, so this is the core of 
song. Please rate.

| /  slide up
| \  slide down
| h  hammer-on
| p  pull-off
| ~  vibrato
| +  harmonic
| x  Mute note
============================================================================
Tap to rate this tab
 
# A B C D E F G H I J K L M N O P Q R S T U V W X Y Z