Song name
# A B C D E F G H I J K L M N O P Q R S T U V W X Y Z

Freestyle - So Slow tab

SO SLOW-FREESTYLE
Tabbed by: NOEL NODALO 
stringlizner@Yahoo.com
12/6/11

STANDARD TUNING
				
INTRO
e|-----------------------------------------------5--------------------------|
B|--5---5-3-----3-3-3---3-3--1-1-----1-3-3---3-6-6---6----------------------|
G|--5---5-4-t---4-3-3-t-3-3--2-2t----2-2-2---2-5-5---5--5-5-----------------|
D|--5---5-5-a---5-5-5-a-2-2--2-2a----2-2-2---2-5-5---5--3-3-----------------|
A|--3-3---3-p-3---3---p-3-2--0--p--0-----------5---5----3-3-----------------|
E|-------------------------------------0---0------------3-3-----------------|

e|-----------------------------------------------5--------------------------|
B|-5---5-3-----3-3-3---3-3--1-1------1-3-3---3-6-6---6----------------------|
G|-5---5-4-t---4-3-3-t-3-3--2-2-t----2-2-2---2-5-5---5--5-5-----------------|
D|-5---5-5-a---5-5-5-a-2-2--2-2-a----2-2-2---2-5-5---5--3-3-----------------|
A|-3-3---3-p-3---3---p-3-2--0---p--0-----------5---5----3-3-----------------|
E|-------------------------------------0---0------------3-3-----------------|
VERSE
e|------------------------0-0-----------------------------------------------|
B|-1-1---1-1-1---1--3-3---1-1-----------------------------------------------|
G|-2-2---2-2-2---2--2-2-t-2-2-t---------------------------------------------|
D|-2-2---2-2-2---2--2-2-a-3---a------------3x-------------------------------|
A|-0---0---0---0--------p-----p-----0---------------------------------------|
E|------------------0-----------0-3-----------------------------------------|

e|------------------------0-------------------------------------------------|
B|-1-1---1-1-1---1--3-3---1--3----------------------------------------------|
G|-2-2---2-2-2---2--2-2-t-2--5----------------------------------------------|
D|-2-2---2-2-2---2--2-2-a-3--3----------------------------------------------|
A|-0---0---0---0--------p----3----------------------------------------------|
E|------------------0-------------------------------------------------------|
REFRAIN
e|-0---0-0------------------------------------------------------------------|
B|-1---1-1-t-3-3---3-3-3-------1---1-1--3-3-3---3-3-------------------------|
G|-2---2-2-a-2-2---2-2-2-------2---2-2--5-3-3-t-3-3-------------------------|
D|-3-3---3-p-------------------2---2-2--3-5-5-a-2-2-------------------------|
A|---------------------------0---0---0--3-3---p-3-2-------------------------|
E|-----------0---0---0---0-3------------------------------------------------|

e|-0---0-0----------------------5-------5-----------------------------------|
B|-1---1-1-t-3-3---3-3-3---3--6-6---6-6-6-----------------------------------|
G|-2---2-2-a-2-2---2-1-1---1--5-5---5-5-5---5-5-5---------------------------|
D|-3-3---3-p------------------5-----5-5-----3-3-5---------------------------|
A|----------------------------5---5---5-----3-3-3---------------------------|
E|-----------0---0---0---0------------------3-3-3---------------------------|
CHORUS
e|------------------------------------------------5-------------------------|
B|--5---5-3-----3-3-3---3-3--1-1------1-3-3---3-6-6---6---------------------|
G|--5---5-4-t---4-3-3-t-3-3--2-2-t----2-2-2---2-5-5---5--5-5----------------|
D|--5---5-5-a---5-5-5-a-2-2--2-2-a----2-2-2---2-5-5---5--3-3----------------|
A|--3-3---3-p-3---3---p-3-2--0---p--0-----------5---5----3-3----------------|
E|--------------------------------------0---0------------3-3----------------|

e|------------------------------------------------5-------------------------|
B|--5---5-3-----3-3-3---3-3--1-1------1-3-3---3-6-6---6---------------------|
G|--5---5-4-t---4-3-3-t-3-3--2-2-t----2-2-2---2-5-5---5--5-5----------------|
D|--5---5-5-a---5-5-5-a-2-2--2-2-a----2-2-2---2-5-5---5--3-3----------------|
A|--3-3---3-p-3---3---p-3-2--0---p--0-----------5---5----3-3----------------|
E|--------------------------------------0---0------------3-3----------------|
BRIDGE
e|--------------------------------------------------------------------------|
B|-------------6---6-6-6---6-----8---8-8-8----------6---6-6-6---6-----8-5---|
G|-------------5---5-5-5---5-----7---7-7-7----------5---5-5-5---5-----7-5---|
D|-------------7---7-7-7---7-----9---9-9-9----------7---7-7-7---7-----9-5-6X|
A|-----0-3-3\5---5---5---5---5\7---7---7----0-3-3\5---5---5---5---5\7---7---|
E|-0-3------------------------------------------------------------------5---|

e|--------------------------------------------------------------------------|
B|---6---6-6-6---6-----8-8----6666--8888--10101010--------------------------|
G|---5---5-5-5---5-----7-7-t--4444--7777--10101010--5-----------------------|
D|---7---7-7-7---7-----9-9-a--7777--9999--10101010--5-----------------------|
A|-5---5---5---5---5\7---7-p--5555--7777--8-8-8-8---3-----------------------|
E|--------------------------------------------------3-----------------------|
CHORUS
e|------------------------------------------------5-------------------------|
B|--5---5-3-----3-3-3---3-3--1-1------1-3-3---3-6-6---6---------------------|
G|--5---5-4-t---4-3-3-t-3-3--2-2-t----2-2-2---2-5-5---5--5-5----------------|
D|--5---5-5-a---5-5-5-a-2-2--2-2-a----2-2-2---2-5-5---5--3-3----------------|
A|--3-3---3-p-3---3---p-3-2--0---p--0-----------5---5----3-3----------------|
E|--------------------------------------0---0------------3-3----------------|

e|------------------------------------------------5-------------------------|
B|--5---5-3-----3-3-3---3-3--1-1------1-3-3---3-6-6---6---------------------|
G|--5---5-4-t---4-3-3-t-3-3--2-2-t----2-2-2---2-5-5---5--5-5----------------|
D|--5---5-5-a---5-5-5-a-2-2--2-2-a----2-2-2---2-5-5---5--3-3----------------|
A|--3-3---3-p-3---3---p-3-2--0---p--0-----------5---5----3-3----------------|
E|--------------------------------------0---0------------3-3----------------|
OUTRO
e|------------------------------------------------5-------------------------|
B|--5---5-3-----3-3-3---3-3--1-1------1-3-3---3-6-6---6---------------------|
G|--5---5-4-t---4-3-3-t-3-3--2-2-t----2-2-2---2-5-5---5--5-5----------------|
D|--5---5-5-a---5-5-5-a-2-2--2-2-a----2-2-2---2-5-5---5--3-3----------------|
A|--3-3---3-p-3---3---p-3-2--0---p--0-----------5---5----3-3----------------|
E|--------------------------------------0---0------------3-3----------------|

e|------------------------------------------------5-------------------------|
B|--5---5-3-----3-3-3---3-3--1-1------1-3-3---3-6-6---6--------5------------|
G|--5---5-4-t---4-3-3-t-3-3--2-2-t----2-2-2---2-5-5---5--5-5---5------------|
D|--5---5-5-a---5-5-5-a-2-2--2-2-a----2-2-2---2-5-5---5--3-3---5-(break)----|
A|--3-3---3-p-3---3---p-3-2--0---p--0-----------5---5----3-3---3------------|
E|--------------------------------------0---0------------3-3----------------|

Tap to rate this tab
# A B C D E F G H I J K L M N O P Q R S T U V W X Y Z