Song name
# A B C D E F G H I J K L M N O P Q R S T U V W X Y Z

Freezepop - Plastic Stars Acoustic chords

Highlighted       Show chord diagrams
-------------------------------------------------------------------------------
			     Plastic Stars [Acoustic] Album version - by Freezepop
-------------------------------------------------------------------------------
Tabbed by: Adam Jaramillo
Email: thatguyuthotuknew@yahoo.com

Tuning:EADGBE (standard)

The song is in an Ab(flat) Major scale. The Chords are Ab Major, Bb minor, Db 
Major, and finally Eb Major. The Chords can be very loosely Finger-picked or 
Strummed (probably both) There is another Acoustic in the song playing lead over 
the chords. I believe the singer is playing these chords while someone else does 
the lead so this tab should be and sounds correct if your singing whilst you play.

Tip:(Bar your ring finger over the D, G,and B string to do the Db Major and Eb Major)

    Ab Major         Bb minor         Db Major         Eb Major
e|--4----------------1----------------4----------------6--------------------|
B|--4----------------2----------------6----------------8--------------------|
G|--5----------------3----------------6----------------8--------------------|
D|--6----------------3----------------6----------------8--------------------|
A|--6----------------1----------------4----------------6--------------------|
E|--4-----------------------------------------------------------------------|
      
Main Riff.
    Ab Major          Bb minor          Db Major          Eb Major
e|--4-4-4-4-4-4-4-4-|-1-1-1-1-1-1-1-1-|-4-4-4-4-4-4-4-4-|-4-4-4-4-6-6-6-6-|
B|--4-4-4-4-4-4-4-4-|-2-2-2-2-2-2-2-2-|-6-6-6-6-6-6-6-6-|-6-6-6-6-8-8-8-8-|
G|--5-5-5-5-5-5-5-5-|-3-3-3-3-3-3-3-3-|-6-6-6-6-6-6-6-6-|-6-6-6-6-8-8-8-8-|
D|--6-6-6-6-6-6-6-6-|-3-3-3-3-3-3-3-3-|-6-6-6-6-6-6-6-6-|-6-6-6-6-8-8-8-8-|
A|--6-6-6-6-6-6-6-6-|-1-1-1-1-1-1-1-1-|-4-4-4-4-4-4-4-4-|-4-4-4-4-6-6-6-6-|
E|--4-4-4-4-4-4-4-4-|-----------------|-----------------|-----------------|

Repeat throughout until Chorus. The whole song is just strumming of 8th notes and 
Switching Chords.

Chorus
                   Let Ring |----
e|--4-4-4-4-1-1-1-1-|-4-4-4-6----6-6--------------------------------------|
B|--4-4-4-4-2-2-2-2-|-6-6-6-8----8-8--------------------------------------|
G|--5-5-5-5-3-3-3-3-|-6-6-6-8----8-8--------------------------------------|
D|--6-6-6-6-3-3-3-3-|-6-6-6-8----8-8--------------------------------------|
A|--6-6-6-6-1-1-1-1-|-4-4-4-6----6-6--------------------------------------|
E|--4-4-4-4---------------------------------------------------------------|


There is an interlude/solo after the second chorus. It's done on the Acoustic 
(presumably by the singer) Listen to the song. It's very slow, consists of only 
Chords, starting with Ab Major, and possibly Finger-picked. Remember the Ab Major 
scale to help you. It is Ab, Bb, C, Db, Eb, F, G, Ab. Good Luck and Happy Picking!

===============================================================================
Tap to rate this tab
# A B C D E F G H I J K L M N O P Q R S T U V W X Y Z