Song name
# A B C D E F G H I J K L M N O P Q R S T U V W X Y Z

Freezepop - Brainpower tab

Brainpower - Freezepop

Tabbed by: davidev

Questions/Corrections: davideventu@hotmail.com


Dropped D tuning

Intro A
G1
|-------------------------------|
|----11----11----11----11----11-|
|-------------------------------|
|-------------------------------|
|-33----33----33----33----33----|
|-------------------------------|
|
|G2
|
|------------------------------|
|------------------------------|
|------------------------------|
|------------------------------|
|------------------------------|
|------------------------------|

Intro B
G1
|-------------------------------|
|----11----11----11----11----11-|
|-------------------------------|
|-------------------------------|
|-33----33----33----33----33----|
|-------------------------------|
|
|G2
|
|---------------------3--6--7-10-|
|--------------------------------|
|--------------------------------|
|--------------------------------|
|--------------------------------|
|--------------------------------|

Verse
G1
|-----------|-------------------|----------------------------| *
|-o--------o|-------------------|----------------------------|
|------11-x8|-------------------|----11----11----11----11----|
|-----------|-----33----33----00|----------------------------|
|-o-33-----o|-------------------|-33----33----33----33----33-|
|-----------|--33----33----00---|----------------------------|
|
|G2
|
|-----------|-------------------|---------------3--6--7-10--|
|-----------|-------------------|---------------------------|
|-----------|-------------------|---------------------------|
|-----------|-------------------|---------------------------|
|-----------|-------------------|---------------------------|
|-----------|-------------------|---------------------------|

Chorus
G1
|------------------------------|
|------------------------------|
|------------------------------|
|----33----33---00----00-------|
|------------------------------|
|-33----33---00----00----------|
|
|G2
|
|-19--19----------14--17--18--21-|
|---------16-18------------------|
|--------------------------------|
|--------------------------------|
|--------------------------------|
|--------------------------------|

* The --|-- aren't actual measures just there to make it simpler to read
Tap to rate this tab
 
# A B C D E F G H I J K L M N O P Q R S T U V W X Y Z