Song name
# A B C D E F G H I J K L M N O P Q R S T U V W X Y Z

Freezepop - Get Ready 2 Rokk tab

Tuning: Drop D (DADGBe)
Tab by: k3v227


Some quick info (Please read):

There are really 3 versions of this song, and the original is very different from 
the two others. The good thing about the two other versions is that the 

guitar solo is the same in both songs. Ever other tab online is of the version 
featured in Guitar Hero 1 and it is the most popular version by far. That 

being said, this tab is of the Guitar Hero 1 version to avoid any confusion. Thanks and enjoy.


Links:

*PLEASE NOTE: The charts used in Guitar Hero/Rock Band aren't 100% accurate.*

Original Version:  http://www.youtube.com/watch?v=OkD-TUE9RyA
Guitar Hero 1 Version: http://www.youtube.com/watch?v=FfRaqQQ9-UE
Rock Band Version: http://www.youtube.com/watch?v=FfRaqQQ9-UE



e|---------------------------|
B|---------------------------|
G|-------------------------4-| X4
D|-4-4-4-4-0-0-0-0-2-2-2-2-4-|
A|-4-4-4-4-0-0-0-0-2-2-2-2-2-|
D|-4-4-4-4-0-0-0-0-2-2-2-2---|


e|----------------------------6b(7)-|
B|----------------------------------|
G|-------------------------4--------|
D|-4-4-4-4-0-0-0-0-2-2-2-2-4--------|
A|-4-4-4-4-0-0-0-0-2-2-2-2-2--------|
D|-4-4-4-4-0-0-0-0-2-2-2-2----------|

e|---------------------------10---------|
B|------------------------------11b(12)-|
G|--------------------------------------|
D|-4-4-4-4-0-0-0-0-2-2-2-2-9------------|
A|-4-4-4-4-0-0-0-0-2-2-2-2-9------------|
D|-4-4-4-4-0-0-0-0-2-2-2-2-9------------|

e|-----------------------------------|
B|----------------------------9b(10)-|
G|-------------------------4---------|
D|-4-4-4-4-0-0-0-0-2-2-2-2-4---------|
A|-4-4-4-4-0-0-0-0-2-2-2-2-2---------|
D|-4-4-4-4-0-0-0-0-2-2-2-2-----------|

e|---------------------------|
B|---------------------------|
G|-------------------------4-|
D|-4-4-4-4-0-0-0-0-2-2-2-2-4-|
A|-4-4-4-4-0-0-0-0-2-2-2-2-2-|
D|-4-4-4-4-0-0-0-0-2-2-2-2---|

e|------------------------------7h10h12p10p7---|
B|--------------------------7h10------------10-|
G|---------------------------------------------|
D|-4-4-4-4-0-0-0-0-2-2-2-2---------------------|
A|-4-4-4-4-0-0-0-0-2-2-2-2---------------------|
D|-4-4-4-4-0-0-0-0-2-2-2-2---------------------|

e|----------------------------7-----|
B|------------------------------7---|
G|-------------------------4------4-|
D|-4-4-4-4-0-0-0-0-2-2-2-2-4--------|
A|-4-4-4-4-0-0-0-0-2-2-2-2-2--------|
D|-4-4-4-4-0-0-0-0-2-2-2-2----------|

e|----------------------------------|
B|----------------------------6b(7)-|
G|-------------------------4--------|
D|-4-4-4-4-0-0-0-0-2-2-2-2-4--------|
A|-4-4-4-4-0-0-0-0-2-2-2-2-2--------|
D|-4-4-4-4-0-0-0-0-2-2-2-2----------|

e|---------------------------------7-|
B|---------------------------7h9h10--|
G|-------------------------4---------|
D|-4-4-4-4-0-0-0-0-2-2-2-2-4---------|
A|-4-4-4-4-0-0-0-0-2-2-2-2-2---------|
D|-4-4-4-4-0-0-0-0-2-2-2-2-----------|

e|---------------------------12p10p712p10p7-|
B|------------------------------------------|
G|-------------------------4----------------|
D|-4-4-4-4-0-0-0-0-2-2-2-2-4----------------|
A|-4-4-4-4-0-0-0-0-2-2-2-2-2----------------|
D|-4-4-4-4-0-0-0-0-2-2-2-2------------------|

e|---------------------------|
B|---------------------------|
G|-------------------------4-|
D|-4-4-4-4-0-0-0-0-2-2-2-2-4-|
A|-4-4-4-4-0-0-0-0-2-2-2-2-2-|
D|-4-4-4-4-0-0-0-0-2-2-2-2---|

e|------------------------------|
B|------------------------------|
G|------------------------------|
D|-4----------------------------|
A|-4-------------------------X\-|
D|-4-------------------------X\-|




e|---------------------------|
B|-----(14)/15---14----------|
G|------------------13-11-10-| x4
D|12-------------------------|
A|---------------------------|
D|---------------------------|

            [Quater note triplets]
e|----------------------------|
B|----------------------------|
G|----------------------------|
D|----------------------------|
A|-4--4--4--4-----4-----4-----|
D|------------0-0---0-0---0-0-|
            *****************

e|----------------------------------|
B|----------------------------------|
G|------(4)/6---4-------------------| x2
D|-4-------------------(4)/6---4----|
A|------------------4-------------7-|
D|----------------------------------|

e|---------------------------------------------------------------------------------------------|
B|---------------------------------------------------------------------------------------------|
G|---------------------------------------------------------------------------------------------|
D|-----4---4-6-7-6-4---4--4-6-4----4-6-4-------4---4-6-7-6-4---4--4-6-4---4---4---4---4-6-4----|
A|--------------------7-------------------7-------------------7----------7-------7-----------7-|
D|-4----------------------------------------4--------------------------------------------------|

e|-----------------------------------------------------------|
B|-----------------------------------------------------------|
G|-----------------------------------------------------------| x2
D|-----------------2-2---2------------4-4--4-0-0--0-2-2--2---|
A|-4-4---4-5-5-0-5-----4---2-------------------------------2-|
D|-----4-----------------------------------------------------|

e|----------------------------|
B|----------------------------|
G|----------------------------| x2
D|-4--4--4--4-6-3--3----------|
A|-4--4--4--4-6-3--3------2-4-|
D|-4--4--4--4-6-3--3--2-4-----|




e|----------------------------6b(7)-|
B|----------------------------------|
G|-------------------------4--------|
D|-4-4-4-4-0-0-0-0-2-2-2-2-4--------|
A|-4-4-4-4-0-0-0-0-2-2-2-2-2--------|
D|-4-4-4-4-0-0-0-0-2-2-2-2----------|

e|---------------------------10---------|
B|------------------------------11b(12)-|
G|--------------------------------------|
D|-4-4-4-4-0-0-0-0-2-2-2-2-9------------|
A|-4-4-4-4-0-0-0-0-2-2-2-2-9------------|
D|-4-4-4-4-0-0-0-0-2-2-2-2-9------------|

e|-----------------------------------|
B|----------------------------9b(10)-|
G|-------------------------4---------|
D|-4-4-4-4-0-0-0-0-2-2-2-2-4---------|
A|-4-4-4-4-0-0-0-0-2-2-2-2-2---------|
D|-4-4-4-4-0-0-0-0-2-2-2-2-----------|

e|---------------------------|
B|---------------------------|
G|-------------------------4-|
D|-4-4-4-4-0-0-0-0-2-2-2-2-4-|
A|-4-4-4-4-0-0-0-0-2-2-2-2-2-|
D|-4-4-4-4-0-0-0-0-2-2-2-2---|

e|------------------------------|
B|------------------------------|
G|------------------------------|
D|-4----------------------------|
A|-4-------------------------X\-|
D|-4-------------------------X\-|




e|---------------------------|
B|-----(14)/15---14----------|
G|------------------13-11-10-| x4
D|12-------------------------|
A|---------------------------|
D|---------------------------|

Guitar Solo

e|-10-------10--------10--------10--------10--------10------|
B|-12b(14)--12b(14)---12b(14)---12b(15)---12b(16)---12b(16)-|
G|----------------------------------------------------------|
D|----------------------------------------------------------|
A| ---------------------------------------------------------|
D|----------------------------------------------------------|

                                         [8th note triplets]
e|------------------------9------------------------------12--14--14p12---|
B|-12p10--10h12p10--10h12----12p10------------------12h14-------------14-|
G|------11--------11---------------11---------11h14----------------------|
D|---------------------------------------11h14---------------------------|
A|-----------------------------------------------------------------------|
D|-----------------------------------------------------------------------|
                                         ******************

*Note: The following bar is the very difficult and this is just one way to play it.
Please feel free to figure out an alternate fingering if that makes it easier.*

e|--------------------------------------------14-------------14----------14h17p14h17-|
B|-----------14h17----------14h17--------14h17----------14h17-------14h16------------|
G|---13h14h16-------13h14h16-----13h14h16-------13h14h16-------14h16-----------------|
D|-16-------------16-----------------------------------------------------------------|
A|-----------------------------------------------------------------------------------|
D|-----------------------------------------------------------------------------------|

                     [8th note triplets]
e|-17b(19)--17b(19)--17p14--17p14--17p14--17-19-17p14--17p14---|
B|------------------------14-----14-----14-----------14-----14-|
G|-------------------------------------------------------------|
D|-------------------------------------------------------------|
A|-------------------------------------------------------------|
D|-------------------------------------------------------------|
                     *********************      ***************

                         [8th note triplets]
e|-19p17p14------------------------12h14p12h14--17-14h17-14h17-14h17-14h17-|
B|---------17p12h14p12h14-----12h14----------------------------------------|
G|-----------------------11h14---------------------------------------------|
D|-------------------------------------------------------------------------|
A|-------------------------------------------------------------------------|
D|-------------------------------------------------------------------------|
                         ***********

e|----------------------------------|
B|----------------------------------|
G|------(4)/6---4-------------------| x2
D|-4-------------------(4)/6---4----|
A|------------------4-------------7-|
D|----------------------------------|




e|---------5-------------|
B|-----------5-----5-----|
G|-------------4-6-----4-| x4
D|-4---4-----------------|
A|---4---4---------------|
D|-----------------------|

e|---------------------------------|
B|---------------------------6b(7)-|
G|---------------------------------|
D|-----------------2-2---2---------|
A|-4-4---4-5-5-0-5-----4---2-------|
D|-----4---------------------------|

e|----------------------------7-----|
B|------------------------------7---|
G|--------------------------------4-|
D|-----------------2-2---2----------|
A|-4-4---4-5-5-0-5-----4---2--------|
D|-----4----------------------------|

e|----------------------------7h10h12p10p7---|
B|----------------------------------------10-|
G|-------------------------------------------|
D|-----------------2-2---2-------------------|
A|-4-4---4-5-5-0-5-----4---2-----------------|
D|-----4-------------------------------------|

e|---------------------------|
B|---------------------------|
G|-------------------------4-|
D|-----------------2-2---2-4-|
A|-4-4---4-5-5-0-5-----4-----|
D|-----4---------------------|

e|--------------------------------------------------|
B|--------------------------------------------------|
G|--------------------------------------------------|
D|-4--4-7--7-7--10-10---/15-14-15-14-15\--10-10-9-9-|
A|-4--4-7--7-7--10-10---/15-14-15-14-15\--10-10-9-9-|
D|-4--4-7--7-7--10-10---/15-14-15-14-15\--10-10-9-9-|

e|------------------------------|
B|------------------------------|
G|------------------------------|
D|-4-------------------------4\-|
A|-4----------------------------|
D|-4----------------------------|

-------------------------------------------------------------------



Tablature Legend
----------------
x - dead note
m - palm mute
> - accented note
~ - sustain note
NH - natural harmonic
PH - pinch harmonic
TH - tapped harmonic
h - hammer on
p - pull off
b - bend
\ -  slide down the neck
/ -  slide up the neck
X\ - pick scratch down
tr - trill
T - tapping
PT - pick tapping
Tap to rate this tab
# A B C D E F G H I J K L M N O P Q R S T U V W X Y Z