Song name
# A B C D E F G H I J K L M N O P Q R S T U V W X Y Z

Freezepop - Get Ready 2 Rokk tab

             Artist - freezepop
             Song - Get Ready To Rokk
             Tuning - Drop D
             Tabbed by - xXxEggyxXx

              INTRO

            e[---------------------------]  X4
            B[---------------------------]
            G[-------------------------4-]
            D[-4-4-4-4-0-0-0-0-2-2-2-2-4-]
            A[-4-4-4-4-0-0-0-0-2-2-2-2-2-]
            D[-4-4-4-4-0-0-0-0-2-2-2-2---]

             INTRO 2
                                          A.H
            e[-------------------------------]
            B[----------------------------(5)]
            G[-------------------------4-----]
            D[-4-4-4-4-0-0-0-0-2-2-2-2-4-----]
            A[-4-4-4-4-0-0-0-0-2-2-2-2-2-----]
            D[-4-4-4-4-0-0-0-0-2-2-2-2-------]

            e[---------------------------10-----]
            B[------------------------------11hB]
            G[----------------------------------]
            D[-4-4-4-4-0-0-0-0-2-2-2-2-9--------]
            A[-4-4-4-4-0-0-0-0-2-2-2-2-9--------]
            D[-4-4-4-4-0-0-0-0-2-2-2-2-9--------]

                                          A.H
            e[---------------------------------]
            B[----------------------------(3b5)]
            G[-------------------------4-------]
            D[-4-4-4-4-0-0-0-0-2-2-2-2-4-------]
            A[-4-4-4-4-0-0-0-0-2-2-2-2-2-------]
            D[-4-4-4-4-0-0-0-0-2-2-2-2---------]

            e[---------------------------]
            B[---------------------------]
            G[-------------------------4-]
            D[-4-4-4-4-0-0-0-0-2-2-2-2-4-]
            A[-4-4-4-4-0-0-0-0-2-2-2-2-2-]
            D[-4-4-4-4-0-0-0-0-2-2-2-2---]

              CHORUS 1
            e[----------------------------------10p9-------]
            B[-----------------------------10h12----12p10--]
            G[-------------------------9h11----------------]
            D[-4-4-4-4-0-0-0-0-2-2-2-2---------------------]
            A[-4-4-4-4-0-0-0-0-2-2-2-2---------------------]
            D[-4-4-4-4-0-0-0-0-2-2-2-2---------------------]
                                  ALL A.H[-----------------]
            e[---------------------------------------------]
            B[---------------------------------------------]
            G[-------------------------4-(4)---------------]
            D[-4-4-4-4-0-0-0-0-2-2-2-2-4----(4)------------]
            A[-4-4-4-4-0-0-0-0-2-2-2-2-2-------------------](2)]
            D[-4-4-4-4-0-0-0-0-2-2-2-2---------------------]

                                           A.H
            e[---------------------------------]
            B[----------------------------(3b5)]
            G[-------------------------4-------]
            D[-4-4-4-4-0-0-0-0-2-2-2-2-4-------]
            A[-4-4-4-4-0-0-0-0-2-2-2-2-2-------]
            D[-4-4-4-4-0-0-0-0-2-2-2-2---------]

            e[---------------------------------7]
            B[---------------------------7h9h10-]
            G[-------------------------4--------]
            D[-4-4-4-4-0-0-0-0-2-2-2-2-4--------]
            A[-4-4-4-4-0-0-0-0-2-2-2-2-2--------]
            D[-4-4-4-4-0-0-0-0-2-2-2-2----------]

            e[---------------------------12p10p7-12p10p7]
            B[------------------------------------------]
            G[-------------------------4----------------]
            D[-4-4-4-4-0-0-0-0-2-2-2-2-4----------------]
            A[-4-4-4-4-0-0-0-0-2-2-2-2-2----------------]
            D[-4-4-4-4-0-0-0-0-2-2-2-2------------------]

            e[----------------------------------]
            B[----------------------------------]
            G[-------------------------4--------]
            D[-4-4-4-4-0-0-0-0-2-2-2-2-4-------4]
            A[-4-4-4-4-0-0-0-0-2-2-2-2-2-------4]
            D[-4-4-4-4-0-0-0-0-2-2-2-2---------4]

                                 x4
      [-----------------------------]       [--------------------------------------]
      [------15---14----------------]     [----------------------------------------]
      [--------------13-10 ---------]     [----------------------------------------]
      [x~~~-12-----------------15-12] [-0--0--0--0--0-----0-----0-----0------------]
      [-----------------------------]      [-0--0--0--0--0-----0-----0-----0-------]
      [-----------------------------]      [-0--0--0--0--0-0-0-0-0-0-0-0-0-0-0-0---]


            [---------------------------------------]        X2
            [-------14--12--------------------------]
guitar1  [-11----------------13--11-----------------]
            [----------------11---------14----------]
            [---------------------------------------]
            [---------------------------------------]

            [------------------------------------]     X2
            [------------------------------------]
guitar2  [-------6---4---------------------------]
            [-4----------------6---4-------------]
            [----------------4----------7--------]
            [------------------------------------]

                                first time[----------]
            [----------------------------------------]
            [----------------------------------------]
            [----------------------------------------]
            [----4---4-6-7-6-4---4--4h6p4----4h6p4---]
            [------------------7-------------------7-]
            [-4--------------------------------------]


           second time   [-----------------------------]
                                [----------------------]
                                [----------------------]
                                [-4---4---4---4-6-4----]
                                [---7-------7-------7--]
                                [----------------------]


           [--------------------------]
           [--------------------------]
           [--------------------------]
           [-----------------2-2---2--]
           [-4-4-0-2-5-5-2-5-----5---2]
           [--------------------------]

           [-----------------------]
           [-----------------------]
           [-----------------------]
           [-4-4--4-0-0--0-2-2--2--]
           [----------------------2]
           [-----------------------]

           [--------------------------]
           [--------------------------]
           [--------------------------]
           [-----------------2-2---2--]
           [-4-4-0-2-5-5-2-5-----5---2]
           [--------------------------]

           [-----------------------]
           [-----------------------]
           [-----------------------]
           [-4-4--4-0-0--0-2-2--2--]
           [----------------------2]
           [-----------------------]

           [-----------------------------]x2
           [-----------------------------]
           [-----------------------------]
           [-4--4--4--4-6-3--3--3-4-6-3-4]
           [-4--4--4--4-6-3--3--3-4-6-3-4]
           [-4--4--4--4-6-3--3--3-4-6-3-4]
                                           A.h
            e[-------------------------------]
            B[----------------------------(5)]
            G[-------------------------4-----]
            D[-4-4-4-4-0-0-0-0-2-2-2-2-4-----]
            A[-4-4-4-4-0-0-0-0-2-2-2-2-2-----]
            D[-4-4-4-4-0-0-0-0-2-2-2-2-------]

            e[---------------------------10-----]
            B[------------------------------11hB]
            G[----------------------------------]
            D[-4-4-4-4-0-0-0-0-2-2-2-2-9--------]
            A[-4-4-4-4-0-0-0-0-2-2-2-2-9--------]
            D[-4-4-4-4-0-0-0-0-2-2-2-2-9--------]

                                          A.H
            e[---------------------------------]
            B[----------------------------(3b5)]
            G[-------------------------4-------]
            D[-4-4-4-4-0-0-0-0-2-2-2-2-4-------]
            A[-4-4-4-4-0-0-0-0-2-2-2-2-2-------]
            D[-4-4-4-4-0-0-0-0-2-2-2-2---------]

            e[---------------------------]
            B[---------------------------]
            G[-------------------------4-]
            D[-4-4-4-4-0-0-0-0-2-2-2-2-4-]
            A[-4-4-4-4-0-0-0-0-2-2-2-2-2-]
            D[-4-4-4-4-0-0-0-0-2-2-2-2---]


            [-------------------------]x4
            [------15---14------------]
            [--------------13-10 -----]
            [-12-----------------15-12]
            [-------------------------]
            [-------------------------]


            [-10-------------10------10------10------------10---]
            [-12b14--14r12---12b14---12b15---12b16--16r12--12b16]
            [---------------------------------------------------]
            [---------------------------------------------------]
            [ --------------------------------------------------]
            [---------------------------------------------------]

   SOLO!!!
 [------------------------12-------------------------------------14--14p12--]
 [-12p10--10h12p10--12b14----12p10-----------10--10h12p10--12sl14---------14]
 [------11--------11---------------11------11--11--------11-----------------]
 [---------------------------------------11---------------------------------]
 [--------------------------------------------------------------------------]
 [--------------------------------------------------------------------------]

 [----------------------------------------------14-------------14-17p14]
 [--------------14--------------14---14h17p14h17----14h17p14h17--------]
 [---14h16p14h16-----14h16p14h16---16-------------16-------------------]
 [-16--------------16--------------------------------------------------]
 [---------------------------------------------------------------------]
 [---------------------------------------------------------------------]

 [-17b19-17b19--17p14--17p14--17p14--17-19-17p14--17p14--]
 [-------------------14-----14-----14-----------14-----14]
 [-------------------------------------------------------]
 [-------------------------------------------------------]
 [-------------------------------------------------------]
 [-------------------------------------------------------]

 [19p17p14--14--------------------------14-17--14-17--14-17--14-17-14~]
 [--------17--17p14--14------------14h17------------------------------]
 [-----------------16--16p14--14h16-----------------------------------]
 [--------------------------16----------------------------------------]
 [--------------------------------------------------------------------]
 [--------------------------------------------------------------------]

            [--------------------------------]   x2
            [------15---14-------------------]
            [--------------13-10 ------------]
            [-12-----------------15-12-------]
            [--------------------------------]
            [--------------------------------]

            [--------5------------------]
            [-------------------------5-]
            [----------6---6--------6---]
            [----4-------4--------4-----]
            [--4---4------------4-------]
            [4-------------------------4]x4

                                         A.H
           [--------------------------------]
           [---------------------------(3b5)]
           [--------------------------------]
           [-----------------2-2---2--------]
           [-4-4-0-2-5-5-2-5-----5---2------]
           [--------------------------------]

                               all A.H   [--------]
           [--------------------------------------]
           [--------------------------------------]
           [----------------------------(4)-------]
           [-----------------2-2---2-------(4)----]
           [-4-4-0-2-5-5-2-5-----5---2--------(2)-]
           [--------------------------------------]


           [-----------------------------------12p10--]
           [--------------------------------12------12]
           [----------------------------9h11----------]
           [-----------------2-2---2------------------]
           [-4-4-0-2-5-5-2-5-----5---2----------------]
           [------------------------------------------]


           [----------------------------]
           [----------------------------]
           [----------------------------]
           [-----------------2-2---2----]
           [-4-4-0-2-5-5-2-5-----5---2b3]
           [----------------------------]

           [------------------------------------------]
           [------------------------------------------]
           [------------------------------------------]
           [-4--4-7--7-7---12-11-12-11-12--9-9--7-7--4]
           [-4--4-7--7-7---12-11-12-11-12--9-9--7-7--4]
           [-4--4-7--7-7---12-11-12-11-12--9-9--7-7--4]

             ENJOY!!
Tap to rate this tab
 
# A B C D E F G H I J K L M N O P Q R S T U V W X Y Z