Song name
# A B C D E F G H I J K L M N O P Q R S T U V W X Y Z

Frei Wild - Sieger Stehen Da Auf Wo Verlierer Liegen Bleiben tab

Frei.Wild  Sieger Stehen Da Auf, Wo Verlierer Liegen Bleiben

------------------------------
TUNING: STANDARD EADGBE

FOR QUESTIONS: lukas.ilikca@googlemail.com

BE SURE WATCHING MY COVER-VIDEO on YOUTUBE: 

http://www.youtube.com/watch?v=wQc68sLRHro
------------------------------

INTRO	
E4-4------2-2-2-2-2-2-2-2-|		
A6-6--2---4-4--4-4-4-4-4-4-|		
D6-6--4---4-4--4-4-4-4-4-4-|  x8	
G------4--------------------|		
B---------------------------|		
e---------------------------|		

E-0-0--0--0-0--0-0-0-0-0-0---2-2-2-2-2-2-2-2-|
A-2-2--2--2-2--2-2-2-2-2-2---4-4--4-4-4-4-4-4-|
D-2-2--2--2-2--2-2-2-2-2-2--4-4--4-4-4-4-4-4-|
G---------------------------------------------|
B---------------------------------------------|
e---------------------------------------------|


CHORUS I
E-4-4-4-4--0-0-0-0--2-2-2-2--4-4-4-4-|
A-6-6-6-6--2-2-2-2--4-4-4-4--6-6-6-6-|
D-6-6-6-6--2-2-2-2--4-4-4-4--6-6-6-6-|
G------------------------------------|
B------------------------------------|
e------------------------------------|

E-4-4-4-4--0-0-0-0--2-2-2-2-2-2-2-2-|
A-6-6-6-6--2-2-2-2--4-4-4-4-4-4-4-4-|
D-6-6-6-6--2-2-2-2--4-4-4-4-4-4-4-4-|   x2
G-----------------------------------|
B-----------------------------------|
e-----------------------------------|

E-4-4-4-4--0-0-0-0--4-4-4-4--0-0-0-0--4-4-4-4--0-0-0-0--2-2-2-2-2-2-2-2-|
A-6-6-6-6--2-2-2-2--6-6-6-6--2-2-2-2--6-6-6-6--2-2-2-2--4-4-4-4-4-4-4-4-|
D-6-6-6-6--2-2-2-2--6-6-6-6--2-2-2-2--6-6-6-6--2-2-2-2--4-4-4-4-4-4-4-4-|
G-----------------------------------------------------------------------|
B-----------------------------------------------------------------------|
e-----------------------------------------------------------------------|

E-0--2--4-x-x-x-x-x--4-x-x-x-x-x--4-x-x-x-x-x--4-x-x-x-x-|
A-2--4--6-x-x-x-x-x--6-x-x-x-x-x--6-x-x-x-x-x--6-x-x-x-x-|
D-2--4--6-x-x-x-x-x--6-x-x-x-x-x-6-x-x-x-x-x--6-x-x-x-x-|
G--------------------------------------------------------|
B--------------------------------------------------------|
e--------------------------------------------------------|








VERSE
E-4-4-4-4-4-4-4-4-4-4-4-4-4-4-4-4--0-0-0-0--2-2-2-2--4-4-4-4-4-4-4-4-|
A-6-6-6-6-6-6-6-6-6-6-6-6-6-6-6-6--2-2-2-2--4-4-4-4--6-6-6-6-6-6-6-6-|
D-6-6-6-6-6-6-6-6-6-6-6-6-6-6-6-6--2-2-2-2--4-4-4-4--6-6-6-6-6-6-6-6-|
G--------------------------------------------------------------------|   x2
B--------------------------------------------------------------------|
e--------------------------------------------------------------------|


E-0-0-0-0-0-0-0-0-0-0-0-0-0-0-0-0--2-2-2-2-2-2-2-2-2-2-2-2-2-2-(2-2)-|
A-2-2-2-2-2-2-2-2-2-2-2-2-2-2-2-2--4-4-4-4-4-4-4-4-4-4-4-4-4-4-(4-4)-|
D-2-2-2-2-2-2-2-2-2-2-2-2-2-2-2-2--4-4-4-4-4-4-4-4-4-4-4-4-4-4-(4-4)-|
G--------------------------------------------------------------------|  x2
B--------------------------------------------------------------------|
e--------------------------------------------------------------------|


CHORUS I


SOLO
E-4-4-4-4-4-4-4-4-4-4-4-4-4-4-4-4--2-2-2-2-2-2-2-2--4-4-4-4-4-4-4-4-|
A-6-6-6-6-6-6-6-6-6-6-6-6-6-6-6-6--4-4-4-4-4-4-4-4--6-6-6-6-6-6-6-6-|
D-6-6-6-6-6-6-6-6-6-6-6-6-6-6-6-6--4-4-4-4-4-4-4-4--6-6-6-6-6-6-6-6-|   x2
G-------------------------------------------------------------------|
B-------------------------------------------------------------------|
e-------------------------------------------------------------------|

E-0-0-0-0-0-0-0-0-0-0-0-0-0-0-0-0--2-2-2-2-2-2-2-2-2-2-2-2-2-2-2-2-|
A-2-2-2-2-2-2-2-2-2-2-2-2-2-2-2-2--4-4-4-4-4-4-4-4-4-4-4-4-4-4-4-4-|
D-2-2-2-2-2-2-2-2-2-2-2-2-2-2-2-2--4-4-4-4-4-4-4-4-4-4-4-4-4-4-4-4-| 
G------------------------------------------------------------------|   x2
B------------------------------------------------------------------|
e------------------------------------------------------------------|


CHORUS II (CHORUS I 2 STEPS HIGHER)
Tap to rate this tab
# A B C D E F G H I J K L M N O P Q R S T U V W X Y Z