Frei Wild - Dieses Jahr Holen Wir Uns Den Pokal tab

it's not the rythmus i'll hope somebody can create the guitair proversion

Intro

E-------------------|
h-------------------|
g-------------------|
d--4--2--7-2--------|
a--4--2--7-2--------|
E--2--0--5-0--------|

Chorus+ Verse
E-------------------|
h-------------------|
g----2--8--4--------|
d-4--2--8--4--------|
a-4--4--6--2--------|
E-2-----------------|

Pre Chorus

E--------------------|
h--------------------|
g--6--8--4--6--------|
d--6--8--4--6--------|
a--4--6--2--4--------|
E--------------------|
Tap to rate this tab
 
# A B C D E F G H I J K L M N O P Q R S T U V W X Y Z