Song name
# A B C D E F G H I J K L M N O P Q R S T U V W X Y Z

Frei Wild - Land Der Vollidioten tab

Intro:
e|-----------------------------------------------------------------------|
h|--5-5-5---5-5-5---5-5--------------------------------------------------|
g|----------------------7-5-7-7^7^7^7^-5-----------5---------------------|
d|-------7--------7----------------------7-7-5-7-7---7---7-5-7-7777-5-7--|
a|-----------------------------------------------------------------------|
E|-----------------------------------------------------------------------|


e|----------------------------------------|
h|----------------------------------------|
g|--5-7^7^7^7^-5---------------5----------|
d|---------------7-5-------5-7--7-7-7-5-7^|
a|-------------------7-5-7----------------|
E|----------------------------------------|

Verse:

e|-------------------------------------------------------------------|
h|-------------------------------------------------------------------|
g|-------------------------------------------------------------------|<|
d|7-7-7-7-7-7-7-7-5-5-5-5-5-5-5-5-3-3-3-3-5-5-5-5-7-7-7-7--7--7--7--7|.|
a|7-7-7-7-7-7-7-7-5-5-5-5-5-5-5-5-3-3-3-3-5-5-5-5-7-7-7-7--7--7--7--7|.|
E|5-5-5-5-5-5-5-5-3-3-3-3-3-3-3-3-1-1-1-1-3-3-3-3-5-5-5-5--5--5--5--5|.|..2x
                                                                       |
e|-------------------------------------------------------------------|.|
h|-------------------------------------------------------------------|.|
g|-------------------------------------------------------------------|<|
d|7-7-7-7-7-7-7-7-5-5-5-5-5-5-5-5-3-3-3-3-5-5-5-5-7-7-7-7--x-x-x-x-x-|
a|7-7-7-7-7-7-7-7-5-5-5-5-5-5-5-5-3-3-3-3-5-5-5-5-7-7-7-7--x-x-x-x-x-|
E|5-5-5-5-5-5-5-5-3-3-3-3-3-3-3-3-1-1-1-1-3-3-3-3-5-5-5-5--x-x-x-x-x-|




Refrain:

e|---------------------------------------------------------------|
h|---------------------------------------------------------------|
g|5-5-5-5-5-5-5-5------------------------------------------------|
d|5-5-5-5-5-5-5-5-5-5-5-5-5-5-5-5-7-7-7-7-7-7-7-7-3-3-3-3-3-3-3-3|
a|3-3-3-3-3-3-3-3-5-5-5-5-5-5-5-5-7-7-7-7-7-7-7-7-1-1-1-1-1-1-1-1|
E|----------------3-3-3-3-3-3-3-3-5-5-5-5-5-5-5-5-1-1-1-1-1-1-1-1|

e|-----------------------------------------------------------------|
h|-----------------------------------------------------------------|
g|5-5-5-5-5-5-5-5--------------------------------------------------|
d|5-5-5-5-5-5-5-5-5-5-5-5-5-5-5-5-7-7-7-7-7-7-7-7-3-3-3-3--3--3--3-|
a|3-3-3-3-3-3-3-3-5-5-5-5-5-5-5-5-7-7-7-7-7-7-7-7-1-1-1-1--3--3--3-|
E|----------------3-3-3-3-3-3-3-3-5-5-5-5-5-5-5-5-1-1-1-1--1--1--1-|


--Inro 

--Verse

--Refrain 

e|---------------------|...jetzt ist eigentlich nur der Bass dran
h|---------------------|...aber wem es auch wie mir zu langweilig
g|---------------------|...wird,kann den Refrain gedaempft spielen
d|xxxxxx7xxxxxx7xxxxxx7|...;)
a|xxxxxx7xxxxxx7xxxxxx7|
E|xxxxxx5xxxxxx5xxxxxx5|

--Refrain

Solo:
e|---------------------------------------------------------------|
h|---------------------------------------------------------------|-2X !
g|--------------------7-7-7-7-7-7---9-9-9-9-9-9------------------|
d|10-10-10-10-10-10-9-------------9-------------9-10-10-10-9-10-9|
a|---------------------------------------------------------------|
E|---------------------------------------------------------------|

e|---------------------------------------------------------------|
h|-------------------------------------------5-------------------|
g|-----------------------------5-77777-5-7-5---7-5-7-5--------5--|
d|10-10-10-10-10-9-7^--55555-7-------------------------5-77777--7|
a|---------------------------------------------------------------|
E|---------------------------------------------------------------|


e|---------8-10-10-10-10-10-8-10-8-12-10-8-10-8------------------8---|
h|88888-10--------------------------------------8-10-10-10-10-10---10|
g|-------------------------------------------------------------------|
d|-------------------------------------------------------------------|
a|-------------------------------------------------------------------|
E|-------------------------------------------------------------------|

--Refrain
_____________________________________________________________________________
Viel Spas! ;)
Tap to rate this tab
 
# A B C D E F G H I J K L M N O P Q R S T U V W X Y Z