Frei Wild - Frei Wild tab

                            Artist : Frei.Wild
                            Song   : Frei.Wild
                            Album  : Hart am Wind
_____________________________________________________________________________
Intro: (Guitar 1/2)
e----------------------|---------------------|
B----------------------|---------------------|
G--5-xx-5-xx-5-xx-5-xx-|---------------------|
D--5-xx-5-xx-5-xx-5-xx-|-6-xx-6-xx-6-xx-6-xx-|
A--3-xx-3-xx-3-xx-3-xx-|-6-xx-6-xx-6-xx-6-xx-|
E----------------------|-4-xx-4-xx-4-xx-4-xx-|

e----------------------|------------------|
B----------------------|------------------|
G----------------------|-5-xx-5-xx-5/8888-|
D--8-xx-8-xx-8-xx-8-xx-|-5-xx-5-xx-5/8888-|
A--8-xx-8-xx-8-xx-8-xx-|-3-xx-3-xx-3/6666-|
E--6-xx-6-xx-6-xx-6-xx-|------------------|

e----------------------|---------------------|
B----------------------|---------------------|
G--5-xx-5-xx-5-xx-5-xx-|---------------------|
D--5-xx-5-xx-5-xx-5-xx-|-6-xx-6-xx-6-xx-6-xx-|
A--3-xx-3-xx-3-xx-3-xx-|-6-xx-6-xx-6-xx-6-xx-|
E----------------------|-4-xx-4-xx-4-xx-4-xx-|

e----------------------|-----------------|
B----------------------|-----------------|
G----------------------|-5-xx-5-xx-55555-|
D--8-xx-8-xx-8-xx-8-xx-|-5-xx-5-xx-55555-|
A--8-xx-8-xx-8-xx-8-xx-|-3-xx-3-xx-33333-|
E--6-xx-6-xx-6-xx-6-xx-|-----------------|
_____________________________________________________________________________

Riff:
  C                    Gis                 b                   C          Dis
e--------------------------------------------------------------------------|
B--------------------------------------------------------------------------|
G--------------------------------------------------------------------------|
D--------------------------------------------------------------------------|
A--3--5-6-5--3--5-6-5--3--5-6-5--3--5-6-5--3--5-6-5--6--6-6-5--3--3-3-6-3--|
E--------------------------------------------------------------------------|

   C                   Gis                 b                   C          Dis
e-----------------------------------------------------------------------8^-|
B--------------------------------------------------------------------------|
G--5--7-8-7--5--7-8-7--5--7-8-7--5--7-8-7--5--7-8-7--8--8-8-7--5--5-5-8----|
D--------------------------------------------------------------------------|
A--------------------------------------------------------------------------|
E--------------------------------------------------------------------------|

Verse1:

C                          Gis
Wir sind die Band, die bis heut noch keiner kennt
b                          C         C Dis
vier junge Typen, wir sind Frei.Wild
C
doch wirds nicht so bleiben
    Gis
Ihr werdet es schon sehn
          b
auf welch grossen Buehnen
       C
wir in kurzer Zeit schon stehn

Refrain:

e--------------------|-----|---------|---------|---------|---------|
B--------------------|-----|---------|---------|---------|---------|
G----------|-8-8-8-8-|-8---|---------|---------|---------|-5-5-5-5-|
D--6-6-6-6-|-8-8-8-8-|-8---|-6-6-6-6-|-5-5-5-5-|-8-8-8-8-|-5-5-5-5-|
A--6-6-6-6-|-6-6-6-6-|-6---|-6-6-6-6-|-5-5-5-5-|-8-8-8-8-|-3-3-3-3-|
E--4-4-4-4-|---------|-----|-4-4-4-4-|-3-3-3-3-|-6-6-6-6-|---------|

Warning: It's not finished!! ^^
Tap to rate this tab
 
# A B C D E F G H I J K L M N O P Q R S T U V W X Y Z