Frei Wild - Weil Du Mich Nur Verarscht Hast tab

Da es mein erster Tab ist koennen durchaus Fehler vorkommen ;)
Falls das der Fall ist einfach melden :P


Intro


D----------------------------------------------------------|
A----------------------11-11-11-13-11-10-10-10-11----------|
F-7-7-9-10-10-9-7------------------------------------------|
C----------------------------------------------------------|
G----------------------------------------------------------|
D----------------------------------------------------------|

D----------------------------------------------------------|
A-10-8-6-8-8-8-10-8----------------------------11----------|
F------------------------10-9-7-7-9-10-10-9-7--------------|
C----------------------------------------------------------|
G----------------------------------------------------------|
D----------------------------------------------------------|

D----------------------------------------------------------|
A-11-11-13-11-10-10-10-11-10-8-6-13-13-13-15-13------------|
F----------------------------------------------------------|
C----------------------------------------------------------|
G----------------------------------------------------------|
D----------------------------------------------------------|

Verse

D-1----1--3----1----------5----6--8------8----|
A-1----3--3----1----------5----6--10-----8----|
F-2----3--5----2--x2------7----7--10-----9----|
C-3----3--5----3----------7----8--10----10----|
G-3----1--3----3----------5----8--8-----10----|
D-1-------1---------------6-------8-----------|


Chorus

2 Moeglichkeiten :


1.:

D--5----1----1----3--|
A--5----3----1----3--|
F--7----3----2----5--|
C--7----3----3----5--|
G--5----1----3----3--|
D------------1-------|



2.:

D-5----6----8---8----|
A-5----6----10--8----|
F-7----7----10--9----|
C-7----8----10--10---|
G-5----8----8---10---|
D------6---------8---|


Viel Spass beim Spielen ;)
Tap to rate this tab
 
# A B C D E F G H I J K L M N O P Q R S T U V W X Y Z