Song name
# A B C D E F G H I J K L M N O P Q R S T U V W X Y Z

Frei Wild - Land Of Bloody Fucking Idiots tab

Frei.Wild - Land of Bloody Fuckin Idiots
Lyrics & Song Frei.Wild | Tabbed by Marvin B.
Nothing specific to explain here. Original played
by two guitarists: Philipp Burger (Rythm Guitar),
Jonas Notdurfter (Lead Guitar)

==TABS===================================================

Intro
E|------------------------------------------------------|
H|--5-5--5-5-5--5-5-----5-5-----5-5---------------------|
G|----------------------------------7-7--5-7-7b9-9-9----|
D|------------------7-7-----7-7-------------------------|
A|------------------------------------------------------|
E|------------------------------------------------------|


E|------------------------------------------------------|
H|------------------------------------------------------|
G|--9r7-5-----------5-----------------------------5-----|
D|--------7-7-5-7-7---7---7-7-7-5-7---7-7-7-5-7---------|
A|------------------------------------------------------|
E|------------------------------------------------------|

                                         A.H
E|------------------------------------------------------|
H|------------------------------------------------------|
G|--7b9-9-9-9r7-5----------------5----------------------|
D|----------------7-5-------5-7----7-7-5-7--------------|
A|--------------------7-5-7-----------------------------|
E|------------------------------------------------------|


Solo
E|------------------------------------------------------|
H|------------------------------------------------------|
G|--/5-5-5-5-5-5-4----/7-7-7-7-7-7-4---/9-9-9-9-9-9-4---|
D|------------------------------------------------------|
A|------------------------------------------------------|
E|------------------------------------------------------|


E|------------------------------------------------------|
H|------------------------------------------------------|
G|--/5-5-5-5-5-5-4-5-4---/5-5-5-5-5-5-4--/7-7-7-7-7-7-4-|
D|------------------------------------------------------|
A|------------------------------------------------------|
E|------------------------------------------------------|


E|------------------------------------------------------|
H|------------------------------------------------------|
G|--/9-9-9-9-9-9-4---/5-5-5-5-4-5------------------5-7--|
D|----------------------------------/5-5-5-5-5-5-7------|
A|------------------------------------------------------|
E|------------------------------------------------------|


E|------------------------------------------------------|
H|------------------------------------------------------|
G|--7-7-7-7-7-7-5-7-5---/7b9r--7-5-7-5-----------5------|
D|-------------------------------------5-7-7-7-7---7~~--|
A|------------------------------------------------------|
E|------------------------------------------------------|


E|------------------------------------------------------|
H|------------------------------------------------------|
G|--------------------------------17--19--19-19-19-19---|
D|--/19-19-19--19-19--19--17--19------------------------|
A|------------------------------------------------------|
E|------------------------------------------------------|

E|------------------------------------------------------|
H|------------------------------------------------------|
G|-19--17--19--17--/19b21r--19--17--19--17--------------|
D|------------------------------------------17--19--19--|
A|------------------------------------------------------|
E|------------------------------------------------------|

E|------------------------------------------------------|
H|------------------------------------------------------|
G|----------17------------------------------------------|
D|--19--19------19~~~-----------------------------------|
A|------------------------------------------------------|
E|------------------------------------------------------|


==CHORDS=================================================

     G5             A5             F5             C5

E|---------|X  E|---------|X  E|---------|X  E|---------|X
H|---------|X  H|---------|X  H|---------|X  H|---------|X
G|---------|X  G|---------|X  G|---------|X  G|----5----|X
D|----5----|   D|----7----|   D|----3----|   D|----5----|
A|----5----|   A|----7----|   A|----3----|   A|--3------|
E|--3------|   E|--5------|   E|--1------|   E|---------|X



==VERSE/CHORUS/BRIDGE==================================== 


 (PLAY THE INTRO RIFF HERE)

   =====VERSE #1:
   
   A5                 G5                   F5          G5
   Weīve always said that we love this land we live in 

                          A5
   And for us this ain't no sin 

   A5                 G5 
   Youīre so stupid - naïve and blind 

   F5                G5                A5
   When you say that this offends you - youīll be always left behind


   
   A5                 G5                              F5
   Just look around - ainīt this a paradise weīve found?

                     G5             A5
   Pride and glory - cause we are mountain-bound! 

   A5                 G5
   We sing out loud - about our greatest passion 

   F5                G5             A5
   About the truth and all the roots of sound


   =====CHORUS:

   C5               G5                  A5
   This is the land of bloody fucking idiots
  
                     F5                  C5
   Who mistake patriotism for a major crime
 
                           G5                       A5
   Well, we ainīt no neo-nazis and we ainīt no anarchists 

                                   F5
   Weīre just homebound, free and true - like you



 (PLAY THE INTRO RIFF HERE AS INTERLUDE)


   =====VERSE #2:


   A5                 G5                      F5       G5
   So letīs be honest : In every other country - no oneīs afraid to say 

              A5              G5
   Here heīs coming from and may we always be true to ourselves 

   F5          G5
   Tomorrow - the word today 

   A5
   Will just mean yesterday 



   A5                                   G5                    
   All them crooked politicians keep on cheating - keep on lying 

   F5                   G5                A5
   But they all get re-elected and that's how itīs always been.

   A5              G5                  F5            G5
   We try to keep our traditions and I really cannot see 

   A5                G5       F5
   Whats wrong with that and why it is a sin.



   =====CHORUS:

   C5               G5                  A5
   This is the land of bloody fucking idiots
  
                     F5                  C5
   Who mistake patriotism for a major crime
 
                           G5                       A5
   Well, we ainīt no neo-nazis and we ainīt no anarchists 

                                   F5
   Weīre just homebound, free and true - like you




                C5
   No, we don't dance the Adolf Hitler ! 


   We don't dance the Mussolini 
 

   And we don't like Berlusconi 
 

   And for sure not that guy Fini ! 

 


   We don't follow Marx and Engels, 


   Bush and Hussein or whoever 


   So find someone else to blame 


   But I'm afraid you ain't that clever !



   =====CHORUS:

   C5               G5                  A5
   This is the land of bloody fucking idiots
  
                     F5                  C5
   Who mistake patriotism for a major crime
 
                           G5                       A5
   Well, we ainīt no neo-nazis and we ainīt no anarchists 

                                   F5
   Weīre just homebound, free and true - like you




(PLAY THE SOLO HERE)




   =====CHORUS:

   C5               G5                  A5
   This is the land of bloody fucking idiots
  
                     F5                  C5
   Who mistake patriotism for a major crime
 
                           G5                       A5
   Well, we ainīt no neo-nazis and we ainīt no anarchists 

                                   F5
   Weīre just homebound, free and true - like you



   =====OUTRO:

   C5                         G5
   The land of bloody idiots, the land of bloody idiots

   A5                         F5
   The land of bloody idiots, this is the land of bloody idiots



   C5                         G5
   The land of bloody idiots, the land of bloody idiots

   A5                         F5
   The land of bloody idiots, is here


        
        
==SYMBOLS================================================

p  -  pull off
h  -  hammer on
b  -  bend
pb -  pre bend
/  -  slide on
\  -  slide off
A.H-  Artifical Harmonic
~  -  Tremolo / Vibrato
Tap to rate this tab
# A B C D E F G H I J K L M N O P Q R S T U V W X Y Z