Song name
# A B C D E F G H I J K L M N O P Q R S T U V W X Y Z

Frei Wild - Sie Hat Dir Nen Arschtritt Gegeben tab

Frei.Wild - Sie  hat dir einen Arschtritt gegeben
Lyrics & Song Frei.Wild | Tabbed by Marvin B.
Original played by two guitarists: Philipp Burger (Rythm Guitar),
Jonas Notdurfter (Lead Guitar). Use some Distortion as effect.


==TABS===================================================

Interlude #1:
E|------------------------------------------------------|
H|--------------7-7-7-----7-7------7-7-------7----------|
G|--7-9-7--9b11------9b11-----9b11------9b11---9b11r9---|
D|------------------------------------------------------|
A|------------------------------------------------------|
E|------------------------------------------------------|

E|------------------------------------------------------|
H|-----------7-7-7------7-7------7-7------7--10--7------|
G|--7---9b11-------9b11-----9b11-------9----------------|
D|------------------------------------------------------|
A|------------------------------------------------------|
E|------------------------------------------------------|

E|------------------------------------------------------|
H|--------7-7-7-------7-7--------7-7------7-------------|
G|---9b11--------9b11-------9b11-----9b11----9b11r9-----|
D|------------------------------------------------------|
A|------------------------------------------------------|
E|------------------------------------------------------|

E|------------------------------------------------------|
H|---------------------------------7--10--7-------------|
G|--7-9-7\-------7-9-7--------9b11-----------9--7-------|
D|------------------------------------------------------|
A|------------------------------------------------------|
E|------------------------------------------------------|


==CHORDS=================================================

     E5              H5              G5

E|---------|X   E|---------|X   E|---------|X
H|---------|X   H|---------|X   E|---------|X
G|---------|X   G|---------|X   E|---------|X
D|----2----|    D|----9----|    E|----5----|
A|----2----|    A|----9----|    E|----5----|
E|--0------|    E|--7------|    E|--3------|


     D5              A5              Bb5

E|---------|X   E|---------|X   E|---------|X
H|---------|X   H|---------|X   E|---------|X
G|----7----|    G|---------|X   E|---------|X
D|----7----|    D|----7----|    E|----8----|
A|--5------|    A|----7----|    E|----8----|
E|---------|X   E|--5------|    E|--6------|



==CHORD STRUMMING======================================== 


   H5                             
   Sie gießt Salz in deine Wunden

   G5                                           
   Die Story hat nicht jemand anderes erfunden

   E5                                    
   Tränen laufen deine Wangen herunter

   A5
   Und dein Ich ertrinkt darunter



   H5
   Warst verliebt, hast an die Zukunft geglaubt

   G5
   Hast dir zwar selbst auch so manches verbaut

   E5
   Von diesem Arschtritt bleiben Spuren zu sehen
  
   A5
   Nicht nur kurz, dein ganzes Leben


 (Play the Interlude 1x)

   H5
   Leere Worte, nichts als Lügen voller Dreck

   G5
   Heut verliebt, morgen grundlos weg

   E5
   Nicht ernstzunehmende Persönlichkeit

   A5
   Heute schon dem Untergang geweiht
 


   H5
   Meine, deine Zukunft, mein mit deinem Freund

   G5
   Irgendwelche Fehler eingeräumt

   E5
   Und lässt du ihn gleich wie mich allein

   A5
   Kannst ehrlich nicht sehr stolz auf dich sein



 (2x Chor Part: H5   G5    D5    A5     A5-Bb5-H5)

   
   H5
   Die Zeit mit ihr, sie war wunderschön

   G5
   Lässt den Film mit ihr noch einmal gehen

   D5
   Kannst ihr Gesicht klar und deutlich sehen

   A5
   Es war wunder, wunderschön

   H5
   Aber in ihr sieht es anders aus

   G5
   Unsicherheit strahlt aus ihr heraus

   D5
   Wünschst ihr viel Glück, wünschst ihr ein schönes Leben

   A5
   Mit euch ging´s schief, sie hat dir nen Arschtritt gegeben



 (Play the Interlude 1x)


   H5
   Irgendwann war die Trauer vorbei

   G5
   Spürst den Frühling, fühlst dich wieder frei

   E5
   Gestehst dir auch deine Fehler ein

   A5
   Immer schuldlos kannst selbst Du nicht sein




   H5
   Es war dein Ego, dass dich innerlich quälte

   G5
   Gemischt mit Liebe deine Tränen säte

   E5
   Verletzter Stolz, Eifersucht und Trauer

   A5
   Willkommen an der Klagemauer




   
   H5
   Die Zeit mit ihr, sie war wunderschön

   G5
   Lässt den Film mit ihr noch einmal gehen

   D5
   Kannst ihr Gesicht klar und deutlich sehen

   A5
   Es war wunder, wunderschön

   H5
   Aber in ihr sieht es anders aus

   G5
   Unsicherheit strahlt aus ihr heraus

   D5
   Wünschst ihr viel Glück, wünschst ihr ein schönes Leben

   A5
   Mit euch ging´s schief, sie hat dir nen Arschtritt gegeben

   H5
   Arschtritt gegeben

   G5
   Arschtritt gegeben

   E5
   Wie oft hast du ihn vergeben

   A5
   Es kommt zurück, gerechtes Leben

   


   H5
   Die Zeit mit ihr, sie war wunderschön

   G5
   Lässt den Film mit ihr noch einmal gehen

   D5
   Kannst ihr Gesicht klar und deutlich sehen

   A5
   Es war wunder, wunderschön

   H5
   Aber in ihr sieht es anders aus

   G5
   Unsicherheit strahlt aus ihr heraus

   D5
   Wünschst ihr viel Glück, wünschst ihr ein schönes Leben

   A5
   Mit euch ging´s schief, sie hat dir nen Arschtritt gegeben

        
==SYMBOLS================================================

p  -  pull off
h  -  hammer on
b  -  bend
r  -  release
pb -  pre bend
/  -  slide on
\  -  slide off
~  -  Tremolo / Vibrato
Tap to rate this tab
 
# A B C D E F G H I J K L M N O P Q R S T U V W X Y Z