Song name
# A B C D E F G H I J K L M N O P Q R S T U V W X Y Z

Freiwild - Zieh Mit Den Gttern tab

Frei.Wild - Zieh mit den Göttern

Tuning: Standard


Intro:

E|-5-----5--------------|
H|---3-----3-3//5-------|
G|----------------------| 8x
D|----------------------|
A|----------------------|
E|----------------------|



Strophe:


E|----------------------|
H|----------------------|
G|-----------8----------|
D|-8----5----8----3-----| schnell
A|-8----5----6----3-----|
E|-6----3---------1-----|


E|----------------------|
H|----------------------|
G|----------------------|
D|-8----5----3----5-----| langsam
A|-8-2x-5-2x-3-2x-5-2x--|
E|-6----3----1----3-----|

E|-----------------------|
H|-----------------------|
G|-----------8-----------|
D|-8----5----8----3----5-| Gedämpft schnell
A|-8----5----6----3----5-|
E|-6----3---------1----3-|



Refrain:



E|-----------------------|
H|-----------------------|
G|-8---------------------|
D|-8----8----3----5----3-|
A|-6----8----3----5----3-|
E|------6----1----3----1-|

E|-------------|
H|-------------|
G|-8-----------|
D|-8----8----3-|
A|-6----8----3-|
E|------6----1-|


E|-----------------------|
H|-----------------------|
G|-8---------------------|
D|-8----8----3----5----3-|
A|-6----8----3----5----3-|
E|------6----1----3----1-|

E|-------------|
H|-------------|
G|-8-----------|
D|-8----3----5-|
A|-6----3----5-|
E|------1----3-|



Strophe:



E|-----------------------|
H|-----------------------|
G|-----------8-----------|
D|-8----5----8----3----5-| 2x Gedämpft schnell
A|-8----5----6----3----5-|
E|-6----3---------1----3-|



Refrain:



E|-----------------------|
H|-----------------------|
G|-8---------------------|
D|-8----8----3----5----3-|
A|-6----8----3----5----3-|
E|------6----1----3----1-|

E|-------------|
H|-------------|
G|-8-----------|
D|-8----8----3-|
A|-6----8----3-|
E|------6----1-|


E|-----------------------|
H|-----------------------|
G|-8---------------------|
D|-8----8----3----5----3-|
A|-6----8----3----5----3-|
E|------6----1----3----1-|

E|-------------|
H|-------------|
G|-8-----------|
D|-8----3----5-|
A|-6----3----5-|
E|------1----3-|



Bridge:



E|-5-----5--------------|
H|---3-----3-3//5-------|
G|----------------------| 4x
D|----------------------|
A|----------------------|
E|----------------------|



Refrain:



E|-----------------------|
H|-----------------------|
G|-----------------------|
D|------8----3----5----3-|
A|------8----3----5----3-|
E|------6----1----3----1-|

E|-------------|
H|-------------|
G|-8-----------|
D|-8----8----3-|
A|-6----8----3-|
E|------6----1-|


E|-----------------------|
H|-----------------------|
G|-8---------------------|
D|-8----8----3----5----3-|
A|-6----8----3----5----3-|
E|------6----1----3----1-|

E|-------------|
H|-------------|
G|-8-----------|
D|-8----3----5-| letzten Ton klingen lassen
A|-6----3----5-|
E|------1----3-|
Tap to rate this tab
# A B C D E F G H I J K L M N O P Q R S T U V W X Y Z