Song name
# A B C D E F G H I J K L M N O P Q R S T U V W X Y Z

Freiwild - Sdtirol tab

-------------------------------------------------------------------------------
                             Südtirol- Frei.Wild
-------------------------------------------------------------------------------
Tabbed by: er.ic.3994
Song Part : Intro & Bridge

Tuning: Standard

e|------------------------------------------------------------------------------|
B|-----------------------------5-------------------------5---5-6-5--------------|
G|--5---5-7-5-7-5-7-5-7-5--5-7---7-5-----------------5-7---7-------7-5----------|
D|-----------------------------------5--5---5---5-7-----------------------------|
A|----------------------------------------7---7---------------------------------|
E|------------------------------------------------------------------------------|

e|------------------------------------------------------------------------------|
B|--5-------5-----5-5---------8-8-6-6-5-5------5------5-----5--6-6-6-6-5-5-5-5--|
G|----5-------5--------7-5-7--------------7-7----5------5-----------------------|
D|------5-------5----------------------------------7------7---------------------|
A|------------------------------------------------------------------------------|
E|------------------------------------------------------------------------------|

e|------------------------------------------------------------------------------|
B|------------------------------------------------------------------------------|
G|-7-7-7-7----------------------------------------------------------------------|
D|------------------------------------------------------------------------------|
A|------------------------------------------------------------------------------|
E|------------------------------------------------------------------------------|
e|------------------------------------------------------------------------------|
Tap to rate this tab
# A B C D E F G H I J K L M N O P Q R S T U V W X Y Z