Song name
# A B C D E F G H I J K L M N O P Q R S T U V W X Y Z

Freiwillige Selbstkontrolle - Was Kostet Die Welt tab

Highlighted       Show chord diagrams
Freiwillige Selbstkontrolle - "Was kostet die Welt"

GUITAR TABS :

Verse: 2x
D, C, G, G
D, C, G, A

Chorus: 5x
F, Am


where i'd play the D and C as power chords and G, F, A and Am normal:

D    C    G    A    F    Am
x----x----x----x----x----x-|
x----x----3----5----1----5-|
x----x----4----6----2----5-|
12--10----5----7----3----7-|
12--10----5----7----3----7-|
10---8----3----5----1----5-|


BASS TABS:

verse:
A:------12-10--8-------10-8--7-------3-2-0------3-2-0---|
E:--10--------------8-------------3----------3----------|

A:------12-10--8-------10-8--7-------3-2-0--------------|
E:--10--------------8-------------3---------/5---5-7-5-7|

chorus:
(don't know this parts, this is what i'd play.. just fiddle around whatever you like or 
play F and A)
E: --1--------1-------1--------5-----0-1-3-5----0-1-3-5-|


LYRICS plus Chord Timing:


D                        C
Wenn du einmal ganz tief unten bist,

           G
und in der Nacht bist du wach
       G
und am Tag bist du mde

        D
und der Kopf tut dir so weh

         C
und dein Herz hast du verloren

G                       A
in irgendeiner Diskothek


         D
oder auf irgendeinem Hauptbahnhof

C
in irgendeiner Stadt

G                       G
in der Bundesrepublik..


D
und dann fllt dir wieder ein

C
wie das war,

G                A
als du immer nur gedacht hast:


F                           Am
"Waaaas kostet die Weeeelt?!" und als du immer nur gesagt hast:
F                           Am
"Waaaas kostet die Weeeelt?!" und als du immer nur gelacht hast
F                           Am
"Waaaas kostet die Weeeelt?!" und als Marlies dann gesagt hat:
F                           Am
"Du bist mein bester Freund!" du bist mein allerbester Freund
F                           Am
"Du bist mein bester Freund!"


D.....
Und dann fllt dir wieder ein
wie das war,
als du immer nur gedacht hast
wie schn die Welt
in den Augen von Marlies ist und
wie schn doch das Leben in Deutschland ist.
Tap to rate this tab
# A B C D E F G H I J K L M N O P Q R S T U V W X Y Z