Song name
# A B C D E F G H I J K L M N O P Q R S T U V W X Y Z

Frente - Bizzare Love Triangle tab

Bizzare Love Triangle(tabs!)
By: James Jacobb C. Villagonzalo BSECE-1

Note this TABS Of the ,,Chords with the lyrics below.

1st chord(F#)             2nd chord(C#)
--------------------------  ------------------------------|
---3---------3----------4-  ---4----------4-----------4---|
-------4---------4--------  -------5----------5-----------|
-----------5---------5----  -----------6----------6-------|
--------------------------  ------------------------------|
--------------------------  ------------------------------|

3nd chord(F#m)
----------------------------|
---1----------1-----------1-|
-------1----------1---------|
-----------3----------3-----|
----------------------------|
----------------------------|
_____________________________________________________________________________
Intro:
-----------------------|
---------------2-------|
-----------1------1----|
-------3-------------3-|
---4-------------------|
-----------------------|

1st chord(F#) (This Happens only After the intro)
----------------1-------|
------------2-----2-----|
--------3-----------3---|
---4------------------4-|
------------------------|
------------------------|

                 C#
Every time I think of you
      F#m                                  F#
I get shot right through into a bolt of blue
         F#
Itís no problem of mine
           C#
But itís a problem I find
F#m                F#
Living a life I canít leave behind

F#                    C#
Thereís no sense in telling me
     F#m                   F#
The wisdom of a fool wonít set you free
               F#
But thatís the way that it goes
     C#
And nobody knows
F#m          F#
Everyday my confusion grows

[Chorus:]
F#            C#
Every time I see you falling
F#m               F#
I get down on my knees and pray
F#                C#
Waiting for that final moment
F#m                    F#
You say the words that I canít say.

(Back to INTRO):
-----------------------|
---------------2-------|
-----------1------1----|
-------3-------------3-|
---4-------------------|
-----------------------|

1st chord(F#) (This Happens only After the intro)
----------------1-------|
------------2-----2-----|
--------3-----------3---|
---4------------------4-|
------------------------|
------------------------|

               C#
I feel fine and I feel good
F#m            F#
I feel like I never should
        F#
Whenever I get this way
              C#
I just donít know what to say
         F#m                   F#
Canít we be ourselves like we were yesterday

F#                   C#
Iím not sure what this could mean
F#m                   F#
I donít think youíre what you seem
       F#
I do admit to myself
           C#
That If I hurt someone else
      F#m                    F#
Iíll never see what weíre meant to be

Chorus:
F#            C#
Every time I see you falling
F#m               F#
I get down on my knees and pray
F#                C#
Waiting for that final moment
F#m                    F#
You say the words that I canít say

Chorus:
F#            C#
Every time I see you falling
F#m               F#
I get down on my knees and pray
F#                C#
Waiting for that final moment
F#m                    F#
You say the words that I canít say.
_____________________________________________________________________________

That Fits Perfectly using the tabs all the the way on top. and repeating those tabs all 
over the song. i hope you get it.

TIP: if you dont get the tabs Try listening here:

http://www.youtube.com/watch?v=6w6aAV1CU7o

I based my tabs through that MusicVideo.
More STARS!
I like MS.KG
Tap to rate this tab
 
# A B C D E F G H I J K L M N O P Q R S T U V W X Y Z