Song name
# A B C D E F G H I J K L M N O P Q R S T U V W X Y Z

Frenzal Rhomb - Predickle Me This tab

-------------------------------------------------------------------------------
	                     Frenzal Rhomb - Predickle Me This
-------------------------------------------------------------------------------
Tabbed by: rob
Email: brainwashed_monkey@hotmail.com

Tuning: EADGBe

intro
e|--------------------------------------------------------------|
B|--------------------------------------------------------------|
G|-------8-6-----------------------8-6-----6--------8-6-----6---|
D|-88888-8-6-6-4---[drums]---88888-8-6-6-4-6--88888-8-6-6-4-6---|
A|-88888-6-4-6-4-------------88888-6-4-6-4-4--88888-6-4-6-4-4---|
E|-66666-----4-2/------------66666-----4-2----66666-----4-2-----|

middle
e|----------------------------------------------------------------|
B|----------------------------------------------------------------|
G|-------8-6-----6--------8-6-----6--1010101010-999999-8888-6666--|
D|-88888-8-6-6-4-6--88888-8-6-6-4-6--1010101010-999999-8888-6666--|
A|-88888-6-4-6-4-4--88888-6-4-6-4-4--8888888888-777777-6666-4444--|
E|-66666-----4-2----66666-----4-2---------------------------------|
   predickle me this..

end
e|------------------------------------|
B|------------------------------------|
G|-------8-6-----6------8-6-----6-----|
D|-88888-8-6-6-4-6---8--8-6-6-4-6-8---|
A|-88888-6-4-6-4-4---8--6-4-6-4-4-8---|
E|-66666-----4-2-----6------4-2---6---|
   hickery dickery predickery...

| /  slide up
| \  slide down
| h  hammer-on
| p  pull-off
| ~  let ring
| +  harmonic
| x  Mute note
===============================================================================
Tap to rate this tab
 
# A B C D E F G H I J K L M N O P Q R S T U V W X Y Z