Song name
# A B C D E F G H I J K L M N O P Q R S T U V W X Y Z

Frenzal Rhomb - Sesame Street tab

Sesame Street
As performed by... F R E N Z A L   R H O M B
Tabbed By Aaron Bridgeman (rokken@sicness.net)

http://bogans.arecool.net

Lovely little cover tune. Get it off napster, folks...

Bass intro, somewhere high playing G G C C D D C D C

INTRO / MIDDLE / OUTRO:
e|----------------------|
B|----------------------|
G|----------------------|
D|------5-5--7-7--5-7-5-|
A|-5-5--3-3--5-5--3-5-3-|
E|-3-3------------------|

VERSEish bit:
e|-------------------------------------------------------------------------|
B|-------------------------------------------------------------------------|
G|-------------------------------------------------------------------------|
D|-7-4--------4---7-4-----7-4--------4--7--9--11---11-11-12--12--12--12-12-|
A|-5-2-5--5-7-2---5-2-5---5-2-5--5-7-2--5--7--9----9--9--10--10--10--10-10-|
E|-----3--3-5---------3-------3--3-5---------------------------------------|

That's the shot... aaah...
Tap to rate this tab
# A B C D E F G H I J K L M N O P Q R S T U V W X Y Z