Song name
# A B C D E F G H I J K L M N O P Q R S T U V W X Y Z

Frenzal Rhomb - Runaway tab

#----------------------------------PLEASE NOTE--------------------------------#
#This file is the author's own work and represents their interpretation of the#
#song. You may only use this file for private study, scholarship, or research.#
#-----------------------------------------------------------------------------#
#-- File created with Instab - http://www.pconline.com/~smcarey/instab.html --#
#-----------------------------------------------------------------------------#

Author/Artist: Frenzal Rhomb
Title: Runaway
Album: Shut Your Mouth
Transcribed by: Luke Lundberg
Email: kane_72@hotmail.com

standard tuning for this song. pretty damn basic u just gotta put it all in order which i think u can do. 
me wit comments/query's

------------------------------------------------------------------------------|
------------------------------------------------------------------------------|
----3--6----------------------------------------------------------------------|
-5--3--6--5-------------------------------------------------------------------|
-5--1--4--5-------------------------------------------------------------------|
-3--------3-------------------------------------------------------------------|
 "i've been living on a quarter of speed.."

------------------------------------------------------------------------------|
------------------------------------------------------------------------------|
-3--5---3--5---3--5-----------------------------------------------------------|
-3--5---3--5---3--5-----------------------------------------------------------|
-1--3---1--3---1--3-----------------------------------------------------------|
------------------------------------------------------------------------------|
 "smashed up face in a parking lot.."

------------------------------------------------------------------------------|
------------------------------------------------------------------------------|
----3--6----------------------------------------------------------------------|
-5--3--6--5-------------------------------------------------------------------|
-5--1--4--5-------------------------------------------------------------------|
-3--------3-------------------------------------------------------------------|
 "run run run runaway.."

------------------------------------------------------------------------------|
------------------------------------------------------------------------------|
----3--6----------------------------------------------------------------------|
-5--3--6--5-------------------------------------------------------------------|
-5--1--4--5-------------------------------------------------------------------|
-3--------3-------------------------------------------------------------------|
 "come down hard in the light of day.."

------------------------------------------------------------------------------|
------------------------------------------------------------------------------|
--7-6-7--7-6-7----------------------------------------------------------------|
--7-6-7--7-6-7----------------------------------------------------------------|
--5-4-5--5-4-5------1-3-4-4-3-1-----------------------------------------------|
----------------3-3-----------------------------------------------------------|
 "runa runa runaway.."     best i could do for this bit.
Tap to rate this tab
 
# A B C D E F G H I J K L M N O P Q R S T U V W X Y Z