Song name
# A B C D E F G H I J K L M N O P Q R S T U V W X Y Z

Frenzal Rhomb - Bag Obux tab

I wanna do this quick.
Simple song. This is pretty much right.

If anybody can do the solo, I would like to know how to do it.
But it's not cool sounding enough for me to try and do it, the song itself is kick ass.

Intro, after static

|--------------------------|
|--------------------------|
|--------------------------|
|--------------------------|
|--0h2-0h2-0h2-0h2-0h2h3---|
|--------------------------|

Main riff

|--------------------------|
|--------------------------|
|--------------------------|
|--4-4---4--4-4-4---4-5----|
|--2-2-0-2--2-2-2-0-2-3----|
|--------------------------|

While you sing go like this...

|----------------------------|
|----------------------------|
|----------------------------|
|--7777777777777777777777----|
|--7777777777777777777777----|
|--5555555555555555555555----|
 PM......................

and then the other part is something like...

|----------------------------|
|----------------------------|
|----------------------------|
|-7-777--5-555--7-777--5-555-|
|-7-777--5-555--7-777--5-555-|
|-5-555--3-333--5-555--3-333-|

"big 'ol BAG O'BUX!"

|--------------------------|
|--------------------------|
|--------------------------|
|--------------------------|
|--0h2-0h2-0h2-0h2-0h2h3---|
|--------------------------|

"Go!"

|--------------------------|
|--------------------------|
|--------------------------|
|--4-4---4--4-4-4---4-5----|
|--2-2-0-2--2-2-2-0-2-3----|
|--------------------------|

Play those riffs, I'm sure you can figure out how it goes.
Tap to rate this tab
# A B C D E F G H I J K L M N O P Q R S T U V W X Y Z