Song name
# A B C D E F G H I J K L M N O P Q R S T U V W X Y Z

Frenzal Rhomb - Methadone chords

Highlighted       Show chord diagrams
An easy song here, I've written out the chord changes however don't trust the timing for the solo
-it's a tab, not manuscript.

Intro

 Palm muted
 e|-------------------------------------------------------------------------|
 B|-------------------------------------------------------------------------|
 G|-------------------------------------------------------------------------|
 D|-2-2-2-0----2-2-2-3-2-0-2------------------------------------------------|
 A|-3-3-3-2----3-3-3-3-3-3-3------------------------------------------------|
 E|-------------------------------------------------------------------------|

Verse 1
 C5       G5       C5        F5
 What the hell are you doing later on

 C5            G5         C5           F5
 I've got some beer and I don't have a gun

 C5       G5      C5      F5
 I wanna find out I wanna try out

 C5       G5          C5          F5
 The possibilities of having some fun


G        F
 And I'm seeing now that

      C                       G
 I've never seen this place before

G        F
 And I'm realising


      C
 I'm alone

        G
 Got no home

        F
 Need a loan

         G
 But I'm not on metha-


 C5        G5       C5            F5
 There's a time for and there's a place for

 C5    G5                C5        F5
 Ultra-violence and it's not on my side

 C5         G5          C5          F5
 I tried to dissect but where's the respect

 C5            G5            C5        F5
 There's still respect in an inanimate life


G         F
 And it's looking like

      C              G
 It's time to escape again

G               F
 There could be something wrong but


      C
 I'm alone

        G
 Got no home

        F
 Need a loan

         G           C
 But I'm not on methadone

        G
 Need a phone

        F
 With a tone

         G           C
 But I'm not on methadone

        G
 I just don't

         F
 Have to go

             G      C
 Because I'm not ???

    G     F
 ???

                    Am
 Why don't you stay awhile

         C              G     F
 And I'm realizing I've never tried

Am      C            G     F
 To see anything the same

Solo:
Played over chorus chords (C,G,F,G)

 e|---------------------------------------------------------------------------|
 B|---------------------------------------------------------------------------|
 G|---------------------------------------------------------------------------|
 D|----------12---------------------------------------------------------------|
 A|-15-14-15----14-15-15-14-15-15-14-15-15------------------------------------|
 E|---------------------------------------------------------------------------|

 e|---------------------------------------------------------------------------|
 B|---------------------------------------------------------------------------|
 G|---------------------------------------------------------------------------|
 D|----------12---------------------------------------------------------------|
 A|-15-14-15----14-15-15-14-15-15-14-15-15------------------------------------|
 E|---------------------------------------------------------------------------|

 e|---------------------------------------------------------------------------|
 B|---------------------------------------------------------------------------|
 G|---------------------------------------------------------------------------|
 D|-14-14-12-14-14-12-14-14-14-12-14-15-12------------------------------------|
 A|---------------------------------------------------------------------------|
 E|---------------------------------------------------------------------------|

 e|---------------------------------------------------------------------------|
 B|---------------------------------------------------------------------------|
 G|-12-12-12-12-12-12-12-12-12-12-12-12-14-14-12-12---------------------------|
 D|---------------------------------------------------------------------------|
 A|---------------------------------------------------------------------------|
 E|---------------------------------------------------------------------------|


 N.C.
 Of all the good things

 N.C.
 Of all the ugly things

 N.C.
 There's a point where you don't have to hide

 Intro riff
 It's time to understand

 Intro riff
 That even Superman

 Intro riff
 He had his problems

 Intro riff
 But he knew how to fly

G         F
 And i realise

      C              G
 It's time to escape again

G               F
 There could be something wrong but


      C
 I'm alone

        G
 Got no home

        F
 Need a loan

         G           C
 But I'm not on methadone

        G
 Need a phone

        F
 With a tone

         G           C
 But I'm not on methadone

        G
 I just don't

         F
 Have to go

             G      C
 Because I'm not ???

    G     F
 ???

                    C
 Why don't you stay awhile

      C
 I'm alone

        G
 Got no home

        F
 Need a loan

         G           C
 But I'm not on methadone

        G
 Need a phone

        F
 With a tone

         G           C
 But I'm not on methadone
Tap to rate this tab
# A B C D E F G H I J K L M N O P Q R S T U V W X Y Z