Song name
# A B C D E F G H I J K L M N O P Q R S T U V W X Y Z

Frenzal Rhomb - Home And Away tab

-3--2-----------------------------------|
-5--4--2---3----5-----------------------|
-5--5--2---5----7-----------------------|
-----------5----7-----------------------|*2
----------------------------------------|
----------------------------------------|

-5-4-3------------------------------------|
-7-6-4---3--5--7--------------------------|
-7-6-4---5--7--9--------------------------|
---------5--7--9--------------------------|
------------------------------------------|

Zayn luvs u all
Tap to rate this tab
# A B C D E F G H I J K L M N O P Q R S T U V W X Y Z