Song name
# A B C D E F G H I J K L M N O P Q R S T U V W X Y Z

Frenzal Rhomb - You Are Not My Friend tab

Help us improve GuitareTab! Take a short survey!
Artist: Frenzal Rhomb
Album: A man is not a camel
Song: You are not my friend
Tabbed by: jack_off20@hotmail.com

INTRO:
e-----------------------------------------------------------
B-----------------------------------------------------------
G7-----7-----7-8-10-878-7-----7-----------------------------
D-878-8-878-8-8-8-8------878-8-878-8-8\3-3-3\0--------------
A-----------------------------------------------------------
E----------------------------------------------------------



VERSE:
e-----------------------------------------------------------
B-----------------------------------------------------------
G-3--7--8---------------------------------------------------
D-3--7--8---------------------------------------------------
A-1--5--6---------------------------------------------------
E-----------------------------------------------------------

i never felt bad......    (repeat twice for this verse)




CHORUS:
(distortion)
e-----------------------------------------------------------
B-----------------------------------------------------------
G-3--7--8---------------------------------------------------
D-3--7--8---------4-4-4-4-4-4--6--7--8-8-8-8-8-8------------
A-1--5--6---------4-4-4-4-4-4--6--7--8-8-8-8-8-8------------
E---------------- 2-2-2-2-2-2--4--5--6-6-6-6-6-6------------

You are not my friend....            never ever ever again....

(repeat this sequence however many times it is played)




BRIDGE:
you repeat intro a few times, then i think it changes key 
then:

e-----------------------------------------------------------
B----------------------------------------------------------
G-----------------------------------------------------------
D--4-4-4-4-4-4--6--7--8-8-8-8-8-8---------------------------
A--4-4-4-4-4-4--6--7--8-8-8-8-8-8---------------------------
E--2-2-2-2-2-2--4--5--6-6-6-6-6-6---------------------------

(this repeats a few times).



All the verses are the same except the one after the bridge where the power chords a broken up (play around with it a little but i think this is right):

e-----------------------------------------------------------
B-----------------------------------------------------------
G---3---3-----7---7-----8---8-------------------------------
D-----3---------7---------8---------------------------------
A-1---------5---------6-------------------------------------
E-----------------------------------------------------------
picture perfect with a frame that pretends........



order of the song:

Intro
verse 1
chorus
verse 2
chorus
bridge
verse 3 
chorus (repeating to a fade out)

thats it!! :)
Related for You Are Not My Friend tab