Song name
# A B C D E F G H I J K L M N O P Q R S T U V W X Y Z

Frenzal Rhomb - Cruelty To Animals tab

Frenzal Rhomb - Cruelty to Animals
Intro

e||---------------------------------|
B||---------------------------------|
G||---------------------------------|
D||-3-1-3-1-3-1-3-1-3-1-3-1-3-1-3-1-|
A||---------------------------------|
D||---------------------------------|


e||---------------------------------|
B||---------------------------------|
G||---------------------------------|
D||-3-1-3-1-3-1-3-1-3-1-3-1-3-1-----|
A||-----------------------------3-1-|
D||---------------------------------|


e||---------------------------------|
B||---------------------------------|
G||-----------------------0-1-3-1-0-|
D||-3-1-3-1-3-1-3-1-3-1-3-----------|
A||---------------------------------|
D||---------------------------------|


e||------------------|
B||------------------|
G||------------------|
D||--3-1-3-1---------|
A||----------3-1-----|
D||--------------4-3-|




Rhythm Guitar

e||-------|
B||-------|
G||---10~-|
D||-3~10~-
A||-3~-8~-
E||-1~----





Pre-Verse + Verse

e||---------|
B||---------|
G||---5---5-|
D||-3-5-6-5-|
A||-3-3-6-3-|
E||-1---4---|




Chorus


e||-------|
B||-------|
G||-6-3---|
D||-6-3-3-|
A||-4-1-3-|
E||-----1-|


First two times of last chorus



e||-------|
B||-------|
G||---6---|
D||-6-6-3-|
A||-6-4-3-|
E||-4---1-|




e||---------------------|
B||---------------------|
G||---------------------|
D||---------------------|
A||-------------------3-|
E||-1~-8~-4~-0~-1-3-4---|





Solo

e||-----------------------------------------------------------8-----------|
B||----------------------------8-9-11-9-8--------------8-9-11------11-9-8-|
G||10-8-10-8-10-8-10-8-10-8-10------------10-8-10-8-10--------------------|
D||-----------------------------------------------------------------------|
A||-----------------------------------------------------------------------|
E||-----------------------------------------------------------------------|

e||------------------------------------------------------8-11-13----------|
B||----------------------------8-9-11-9-8---------8-9-11------------------|
G||10-8-10-8-10-8-10-8-10-8-10------------10-8-10-------------------------|
D||-----------------------------------------------------------------------|
A||-----------------------------------------------------------------------|
E||-----------------------------------------------------------------------|

Plug me in
Don't count me in
Its true not everybody wins
left in the cold
I'm feeling old
Lowest bidder I am sold
All roads lead to caring only for yourself
So I am told
Is this the day I subscribe to the magazine a hundred K?
Whooooooo
Seems everybody's doing it
And aren't we having fun
It's the new craze
It's all the rage
It's not a yo-yo or a maze
It's the new thing that's grabbed
the imagination of everyone
Whooooooo
Seems everybody's doing it
And this is how it goes
Buy stuff and sex and drugs and cruelty to animals
Tap to rate this tab
 
# A B C D E F G H I J K L M N O P Q R S T U V W X Y Z