Song name
# A B C D E F G H I J K L M N O P Q R S T U V W X Y Z

Frenzal Rhomb - Bucket Bong tab

The other tab wasn't too good, so I figured I'd give it a shot. Probably not perfect, 
but hopefully a slightly better alternative.


"I called ahead, I felt so..."
e|-------------------------------------------------------------------|
B|-------------------------------------------------------------------|
G|--4444444444444444----------------4444444444444--------------------|
D|--4444444444444444----------------4444444444444--------------------|
A|--2222222222222222----------------2222222222222--------------------|
E|-------------------22222222222222----------------------------------|


e|-------------------------------------------------------------------|
B|-------------------------------------------------------------------|
G|----------66-666-644-444-4-----------------------------------------|
D|--44-444-466-666-644-444-42~---------------------------------------|
A|--44-444-444-444-422-222-22~---------------------------------------|
E|--22-222-2----------------0~---------------------------------------|


e|-------------------------------------------------------------------|
B|-------------------------------------------------------------------|
G|--4-444444---------------4-----------------------------------------|
D|--4-444444-6-6666666-2-4-4-----------------------------------------|
A|--2-222222-6-6666666-2-4-2-----------------------------------------|
E|-----------4-4444444-0-2-------------------------------------------|

e|-------------------------------------------------------------------|
B|-------------------------------------------------------------------|
G|---------------4444444444444444----------------4444444444444-------|
D|--44-44----44--4444444444444444----------------4444444444444-------|
A|--44-44----44--2222222222222222-44444444444444-2222222222222-------|
E|--22-22----22-------------------22222222222222---------------------|
pm                                ..............

e|-------------------------------------------------------------------|
B|-------------------------------------------------------------------|
G|----------66-666-644-444-4-----------------------------------------|
D|--44-444-466-666-644-444-42~---------------------------------------|
A|--44-444-444-444-422-222-22~---------------------------------------|
E|--22-222-2----------------0~---------------------------------------|


e|-------------------------------------------------------------------|
B|-------------------------------------------------------------------|
G|--4-444444---------------4-----------------------------------------|
D|--4-444444-6-6666666-2-4-4-----------------------------------------| x 2
A|--2-222222-6-6666666-2-4-2-----------------------------------------|
E|-----------4-4444444-0-2-------------------------------------------|


e|-------------------------------------------------------------------|
B|-------------------------------------------------------------------|
G|---6666-8---6666-8-------------------------------------------------|
D|----------9----------6666-8---6666-8-6-----------------------------| x 2
A|-------------------9--------9----------9---------------------------|
E|-------------------------------------------------------------------|

e|-------------------------------------------------------------------|
B|-------------------------------------------------------------------|
G|---/888-66--------------------------------------6------------------|
D|-----------99-989-9-999-8-6-5-68--6---6---5---9---9----------------|
A|------------------------------------7---7---7-------9-6------------|
E|--------------------------------------------------------7----------|


e|-------------------------------------------------------------------|
B|-------------------------------------------------------------------|
G|-------------------------------------------------------------------|
D|-------------------8888888888888-----------------------------------|
A|--2222222222222222-6666666666666-666666666666666-22222222222222222-|
E|--0000000000000000---------------444444444444444-00000000000000000-|
pm  ................ ............. ............... .................

e|-------------------------------------------------------------------|
B|-------------------------------------------------------------------|
G|-------------------------------------------------------------------|
D|--44444444--------------------5~-----------------------------------|
A|--22222222-444444444-22222222-5~-----------------------------------|
E|-----------222222222-00000000-3~-----------------------------------|
pm  ........ ......... ........

e|-------------------------------------------------------------------|
B|-------------------------------------------------------------------|
G|--4-444444---------------4-----------------------------------------|
D|--4-444444-6-6666666-2-4-4-----------------------------------------| x 3
A|--2-222222-6-6666666-2-4-2-----------------------------------------|
E|-----------4-4444444-0-2-------------------------------------------|
Tap to rate this tab
 
# A B C D E F G H I J K L M N O P Q R S T U V W X Y Z