Song name
# A B C D E F G H I J K L M N O P Q R S T U V W X Y Z

Frenzal Rhomb - Mum Changed Locks tab

#

Date: Sun, 14 Dec 1997 13:54:20 +1000
From: Groundwater Family 
Subject: crd "Mum Changed Locks" by "Frenzal Rhomb"

mum_changed_locks.crd
"Mum changed locks" by Frenzal Rhomb 
Album: "Meet the Family" track 1
Transcribed by Tim Groundwater (pgroundw@tpgi.com.au)

Intro:
Guitar 1: E*,C*,A*,B5*       *= 8 times
Guitar 2:---------------------------------
         -----8-------8-------8-10-8----8-
         -9-9----9-9-----9--9--------9----
         ---------------------------------
         ---------------------------------  All that x 4
         ---------------------------------  Listen to cd for timing

Verse:  
      E*                                             C
      Returning home I look forward to the thrill of another lecture 
                               A
      another pointless drill, ascending the front stars I prepare for  
               B
      the war, why the fuck is my key not fitting in the door
       
Chorus: E*    C    D               E
        Oh my god mum changed the locks  hey    (E*=high E played at 7th
fret)

Bridge after first chorus: Guitar 1 same as intro x 2
Guitar 2:----------------------------------
 Fig1    ----------------------------------
         ----------------------------------
        
---------------------7------------                                     
-7-7-10-7-7-10-7-7-10--10-7-10----
         ----------------------------------


        4 --------------------3-------------
        5 --3-3-6-3-3-6-3-3-6---6-3-6-------
        6 ----------------------------------

        4 ---------------------------------
        5 -------------------5-------------
        6 -5-5-8-5-5-8-5-5-8---8-5-8-------

        5 ----------------------7-----------
        6 -7-7-10-7-7-10-7-7-10----10-7-10--


Interlude after 2nd chorus
Guitar 1: same as intro
Guitar 2: alternate between fig 1 and 

4 -------------------5---------
5 -5 5 8 5 5 8 5 5 8---8 5 8---


Outro same as intro    enjoy!!
Tap to rate this tab
 
# A B C D E F G H I J K L M N O P Q R S T U V W X Y Z