Song name
# A B C D E F G H I J K L M N O P Q R S T U V W X Y Z

Frenzal Rhomb - Whod Be A Cop tab

Artist: Frenzal Rhomb
Song: Who'd Be A Cop
Album: Sans Souci
Tabbed By: Pappy (www.thenumlocks.com)
Tuning: Standard (EADGBe)

Palm Mute:....
Slide:/
Let Ring: ~
Stab:<

INTRO
e|---------------------------|
B|---------------------------|
G|------6/8------------------|
D|-3-3--6/8--6-4-6-4---------|X4
A|-3-3--4/6--6-4-6-4---------|
E|-1-1-------4-2-4-2---------|

VERSE "You had such a terrible time at home..."
e|-------------------------------------------------|
B|-------------------------------------------------|
G|-------------------------------------------------|
D|-33333333--66666666--88888888--3-3-3--6-4-6-4----|X2
A|-33333333--66666666--88888888--3-3-3--6-4-6-4----|
E|-11111111--44444444--66666666--1-1-1--4-2-4-2----|

RIFF
e|---------------------------|
B|---------------------------|
G|------6/8------------------|
D|-3-3--6/8--6-4-6-4---------|X2
A|-3-3--4/6--6-4-6-4---------|
E|-1-1-------4-2-4-2---------|

VERSE "Hanging Out at the nearest..."
e|-------------------------------------------------|
B|-------------------------------------------------|
G|-------------------------------------------------|
D|-33333333--66666666--88888888--3-3-3--6-4-6-4----|X2
A|-33333333--66666666--88888888--3-3-3--6-4-6-4----|
E|-11111111--44444444--66666666--1-1-1--4-2-4-2----|

PRE CHORUS "Get a real job..."
e|-------------------------|
B|-------------------------|
G|-66666666--.888888.-6-5--|
D|-66666666--.888888.-6-5--|
A|-44444444--.666666.-4-3--|
E|-----------........------|

CHORUS "Did you not get enough love, did your..."
e|---------------------------------------------------|
B|---------------------------------------------------|
G|---------------8-88--66---------------11-1111-99---|
D|--66666666-----8-88--66--99999999-----11-1111-99---|
A|--66666666 X3--6-66--44--99999999 X3--9--9-9--77---|
E|--44444444---------------77777777------------------|

RIFF
e|---------------------------|
B|---------------------------|
G|------6/8------------------|
D|-3-3--6/8--6-4-6-4---------|X2
A|-3-3--4/6--6-4-6-4---------|
E|-1-1-------4-2-4-2---------|

VERSE
e|-------------------------------------------------------------------------------|
B|-------------------------------------------------------------------------------|
G|-------------------------------------------------------------------------------|
D|--3~--6~--8~--3~--6-4-6-4---3<-3<-3<-3<--6<-6<-6<-6<--8<-8<-8<-8<--3~--6-4-6-4-|
A|--3~--6~--8~--3~--6-4-6-4---3<-3<-3<-3<--6<-6<-6<-6<--8<-8<-8<-8<--3~--6-4-6-4-|
E|--1~--4~--6~--1~--4-2-4-2---1<-1<-1<-1<--4<-4<-4<-4<--6<-6<-6<-6<--1~--4-2-4-2-|

PRE CHORUS "Get a real job..."
e|-------------------------|
B|-------------------------|
G|-66666666--.888888.-6-5--|
D|-66666666--.888888.-6-5--|
A|-44444444--.666666.-4-3--|
E|-----------........------|

CHORUS "I dont know how you get to sleep..."
e|---------------------------------------------------|
B|---------------------------------------------------|
G|---------------8-88--66---------------11-1111-99---|
D|--66666666-----8-88--66--99999999-----11-1111-99---|
A|--66666666 X3--6-66--44--99999999 X3--9--9-9--77---|
E|--44444444---------------77777777------------------|

BRIDGE "to handle the violence..."
e|-------------|
B|-------------|
G|-------------|
D|-3~-7~-8~-6~-|X2
A|-3~-7~-8~-6~-|
E|-1~-5~-6~-4~-|

RIFF "ARRRRRRRGH"
e|---------------------------|
B|---------------------------|
G|------6/8------------------|
D|-3-3--6/8--6-4-6-4---------|X4
A|-3-3--4/6--6-4-6-4---------|
E|-1-1-------4-2-4-2---------|

PRE CHORUS "Get a real job..."
e|-------------------------|
B|-------------------------|
G|-66666666--.888888.-6-5--|
D|-66666666--.888888.-6-5--|
A|-44444444--.666666.-4-3--|
E|-----------........------|

CHORUS "Did you not get enough love, did your..."
e|------------------------|  |---------------------------|
B|------------------------|  |---------------------------|
G|---------------8-88--66-|  |--------------11-1111-99---|
D|--66666666-----8-88--66-|X1|-99999999-----11-1111-99---|X2
A|--66666666 X3--6-66--44-|  |-99999999 X3--9--9-9--77---|
E|--44444444--------------|  |-77777777------------------|

OUTRO "Who Would be a Fuking cop...."
e|----------------------|
B|----------------------|
G|----------------------|
D|--9----------------8--|
A|--9 Keep Struming--8--|
E|--7----------------6--|

RIFF
e|---------------------------|
B|---------------------------|
G|------6/8------------------|
D|-3-3--6/8--6-4-6-4---------|X1
A|-3-3--4/6--6-4-6-4---------|
E|-1-1-------4-2-4-2---------|

THis IS THE BEST SONG on this album, and this album KICKS ARSE!!

Go to www.thenumlocks.com for some info on me or to rate this TAB!
Tap to rate this tab
 
# A B C D E F G H I J K L M N O P Q R S T U V W X Y Z