Song name
# A B C D E F G H I J K L M N O P Q R S T U V W X Y Z

Frenzal Rhomb - Never Had So Much Fun tab

Intro
e|--------------------------------------------------------------------------|
B|--------------------------------------------------------------------------|
G|--------------------------------------------------------------------------|
D|-5~-----------------------------------------------------------------------|
A|-5~------------------------------------------------- pick scrape ---------|
E|-3~----------------------------------------->->->->->->->->->->->->->->->-|

Verse
e|--------------------------------------------------------------------------|
B|--------------------------------------------------------------------------|
G|-----------------------5-5-x-5-5--7-7-x-7-7-------------------------------|
D|-5-5-x-5-5--5-5-x-5-5--5-5-x-5-5--7-7-x-7-7-------------------------------|
A|-5-5-x-5-5--5-5-x-5-5--3-3-x-3-3--5-5-x-5-5-------------------------------|
E|-3-3-x-3-3--3-3-x-3-3-----------------------------------------------------|

Chorus
e|---------------------------------------------------------------------------|
B|---------------------------------------------------------------------------|
G|-5-5-5-5-------------------------5-5-5-5-7-7-7-7-9-9-9-9-9-9-9-9-5-5-5-5---|
D|-5-5-5-5-7-7-7-7-5-5-5-5-5-5-5-5-5-5-5-5-7-7-7-7-9-9-9-9-9-9-9-9-5-5-5-5-7-|
A|-3-3-3-3-7-7-7-7-5-5-5-5-5-5-5-5-3-3-3-3-5-5-5-5-7-7-7-7-7-7-7-7-3-3-3-3-7-|
E|---------5-5-5-5-3-3-3-3-3-3-3-3-----------------------------------------5-|

Post Chorus
e|--------------------------------------------------------------------------|
B|--------------------------------------------------------------------------|
G|---------9-9-9-9-10-10-10-10-7-7-7-7---------7-7-7-7----------------------|
D|-5-5-5-5-9-9-9-9-10-10-10-10-7-7-7-7-5-5-5-5-7-7-7-7-5-5-5-5--------------|
A|-5-5-5-5-7-7-7-7--8--8--8--8-5-5-5-5-5-5-5-5-5-5-5-5-5-5-5-5--------------|
E|-3-3-3-3-----------------------------3-3-3-3---------3-3-3-3--------------|

Verse

Chorus

Post Chorus 2
e|--------------------------------------------|------------------------------|
B|--------------------------------------------|------------------------------|
G|---------9-9-9-9-10-10-10-10-7-7-7-7--------|---------7-7-7-7--------------|
D|-5-5-5-5-9-9-9-9-10-10-10-10-7-7-7-7- x 3 --|-5-5-5-5-7-7-7-7-5-5-5-5- x 1-|
A|-5-5-5-5-7-7-7-7--8--8--8--8-5-5-5-5--------|-5-5-5-5-5-5-5-5-5-5-5-5------|
E|-3-3-3-3------------------------------------|-3-3-3-3---------3-3-3-3------|

Pre Solo
e|--------------------------------------------------------------------------|
B|--------------------------------------------------------------------------|
G|-9-9-9-9-7-7-7-7-5-5-5-5-7-7-7-7------------------------------------------|
D|-9-9-9-9-7-7-7-7-5-5-5-5-7-7-7-7------------------------------------------|
A|-7-7-7-7-5-5-5-5-3-3-3-3-5-5-5-5------------------------------------------|
E|--------------------------------------------------------------------------|


Solo
e|--------------------------------------------------------------------------|
B|---------------------------13-13-13p1210--------12-12-15b---12------------|
G|-9--9-11-12-11----11-11-12----------------12------------------------------|
D|--------------------------------------------------------------------------|
A|--------------------------------------------------------------------------|
E|--------------------------------------------------------------------------|

e|-------------15-----------------14----------------------------------------|
B|-12-12-15b--------15b----15b----------------------------------------------|
G|--------------------------------------------------------------------------|
D|--------------------------------------------------------------------------|
A|--------------------------------------------------------------------------|
E|--------------------------------------------------------------------------|

Finish
e|--------------------------------------------------------------------------|
B|--------------------------------------------------------------------------|
G|-5-5-5-5-7-7-7-7-5-5-5-5-7-7-7-7-5-5-5-5-7-7-7-7---------7-7-7-7-8-8-8-8--|
D|-5-5-5-5-7-7-7-7-5-5-5-5-7-7-7-7-5-5-5-5-7-7-7-7-5-5-5-5-7-7-7-7-8-8-8-8--|
A|-3-3-3-3-5-5-5-5-3-3-3-3-5-5-5-5-3-3-3-3-5-5-5-5-5-5-5-5-5-5-5-5-6-6-6-6--|
E|-------------------------------------------------3-3-3-3------------------|

e|--------------------------------------------------------------------------|
B|--------------------------------------------------------------------------|
G|-9-9-9-9-5-5-5-5-7-7-7-7--------------------------------------------------|
D|-9-9-9-9-5-5-5-5-7-7-7-7-5------------------------------------------------|
A|-7-7-7-7-3-3-3-3-5-5-5-5-5------------------------------------------------|
E|-------------------------3------------------------------------------------|

Tabbed by Matty Allen (any mistakes plaese email me at mallen@yorketnas.sa.edu.au) Cheerz
Tap to rate this tab
 
# A B C D E F G H I J K L M N O P Q R S T U V W X Y Z