Song name
# A B C D E F G H I J K L M N O P Q R S T U V W X Y Z

Frenzal Rhomb - Beaded Curtains tab

E-----------------------------------------------------------------|
B-----------------------------------------------------------------|
G-5-5-5-5-5-5-5-5---------------------------------5-5-5-5-5-5-5-5-|
D-5-5-5-5-5-5-5-5-5-5-5-5-5-5-5-5-3-3-3-3-3-3-3-3-5-5-5-5-5-5-5-5-|
A-3-3-3-3-3-3-3-3-5-5-5-5-5-5-5-5-3-3-3-3-3-3-3-3-3-3-3-3-3-3-3-3-|
E-----------------3-3-3-3-3-3-3-3-1-1-1-1-1-1-1-1-----------------|
         C               G              F                C


---------------------------------------------|
---------------------------------------------|
-5-5-5-5-5-5-5-5--------------------------5-5|
-5-5-5-5-5-5-5-5-5-5-5-5-5-5-5-5--3--5----5-5|
-3-3-3-3-3-3-3-3-5-5-5-5-5-5-5-5--3--5----3-3|
-----------------3-3-3-3-3-3-3-3--1--3-------|

        C                G        F  G     C
Tap to rate this tab
# A B C D E F G H I J K L M N O P Q R S T U V W X Y Z