Song name
# A B C D E F G H I J K L M N O P Q R S T U V W X Y Z

Frenzal Rhomb - My Pants Keep Falling Down tab

               My Pants Keep Falling Down - Frenzal Rhomb
---------------------------------------------------------------------------------------------|
Tabbed by:Anson93
Email:maccadonald93@hotmail.com


Tuning: Standard (E B G D A E)


Intro:

Lead

E|-------------------------------------------------------------------------|
B|-------------------------------------------------------------------------|
G|-------------------------------------------------------------------------|
D|7-7-7/9---7-7-7/9---7-7-7/9---7-7-7/9------------------------------------|
A|-------------------------------------------------------------------------|
E|-------------------------------------------------------------------------|

Rhythm

E|-------------------------------------------------------------------------|
B|-------------------------------------------------------------------------|
G|7-7----------------------------------------------------------------------|
D|5-5-------9-9-------5-5---------5/7--------------------------------------|
A|5-5-------7-9-------5-5---------5/7--------------------------------------|
E|----------7-7-------3-3---------3/5--------------------------------------|

Verse (No Lead):

Rhythm

 "It's public humiliation         It's not something that I fear"

E|-------------------------------------------------------------------------|
B|-------------------------------------------------------------------------|
G|-------------------------------------------------------------------------|
D|5555555555555555999999999999999955555555555555557777777777777777---------|
A|5555555555555555999999999999999955555555555555557777777777777777---------|
E|3333333333333333777777777777777733333333333333335555555555555555---------|

Solo:

Lead

E|-------------------------------------------------------------------------|
B|7-7-5h7-5h7-7-5h7-5h7-7-5h7-7-----5--------------------------------------|
G|------------------------------4-7----------------------------------------|
D|-------------------------------------------------------------------------|
A|-------------------------------------------------------------------------|
E|-------------------------------------------------------------------------|

E|-------------------------------------------------------------------------|
B|-------------------------------------------------------------------------|
G|7-7----------------------------------------------------------------------|
D|5-5-------9-9-------5-5---------5/7--------------------------------------|
A|5-5-------7-9-------5-5---------5/7--------------------------------------|
E|----------7-7-------3-3---------3/5--------------------------------------|

Verse (No Lead):

Rhythm

 "I always...     I can't see why"

E|-------------------------------------------------------------------------|
B|-------------------------------------------------------------------------|
G|-------------------------------------------------------------------------|
D|55555555555555559999999977777777-----------------------------------------|
A|55555555555555559999999977777777-----------------------------------------|
E|33333333333333337777777755555555-----------------------------------------|

Chorus (No Lead):

Rhythm

 "My pant keep falling down"

E|-------------------------------------------------------------------------|
B|-------------------------------------------------------------------------|
G|7-7----------------------------------------------------------------------|
D|5-5-------9-9-------5-5---------5/7--------------------------------------|
A|5-5-------7-9-------5-5---------5/7--------------------------------------|
E|----------7-7-------3-3---------3/5--------------------------------------|

Bridge

Lead

 "Aaaaw my pants fell off"

E|------------------------------------------------5------------------------|
B|77777788777777887777778877775555777777887777778--------------------------|
G|-------------------------------------------------------------------------|
D|-------------------------------------------------------------------------|
A|-------------------------------------------------------------------------|
E|-------------------------------------------------------------------------|

Rhythm

E|-------------------------------------------------------------------------|
B|-------------------------------------------------------------------------|
G|-------------------------------------------------------------------------|
D|5555555555555555555555555555555555555555555555557777777777777777---------|
A|5555555555555555555555555555555555555555555555557777777777777777---------|
E|3333333333333333333333333333333333333333333333335555555555555555---------|

Outro (No Lead):

Rhythm

E|-------------------------------------------------------------------------|
B|-------------------------------------------------------------------------|
G|7-7---------------------------------7\-----------------------------------|
D|5-5-------9-9-------5-5---------5/7-7\-----------------------------------|
A|5-5-------7-9-------5-5---------5/7-5\-----------------------------------|
E|----------7-7-------3-3---------3/5--------------------------------------|

| /  slide up
| \  slide down
| h  hammer-on
| p  pull-off
| ~  vibrato
| +  harmonic
| x  Mute note
============================================================================
Tap to rate this tab
 
# A B C D E F G H I J K L M N O P Q R S T U V W X Y Z