Guitaretab - guitar tabs
Song name
# A B C D E F G H I J K L M N O P Q R S T U V W X Y Z

Frenzal Rhomb - Bucket Bong tab

Frenzal Rhomb - Bucket Bong
This is not my own work, the name of the person who did this is at the bottom. Tjis tab 
on here so i thought I'd put it on =] enjoy.

verse:


e|---------------------------------------------------------------------|
b|---------------------------------------------------------------------|
g|-4-4-4-4-4-4-4----------------4-4-4-4-4-4-4--------------------------|
d|-4-4-4-4-4-4-4----------------4-4-4-4-4-4-4--------------------------|
a|-2-2-2-2-2-2-2----------------2-2-2-2-2-2-2--------------------------|
e|----------------2-2-2-2-2-2-2----------------------------------------|


e|---------------------------------------------------------------------|
b|---------------------------------------------------------------------|
g|-4-4-4-4-4-4-4-------------------------------------------------------|
d|-4-4-4-4-4-4-4--6-6-6-6-6--2-2-2-2-2--4-4-4-4------------------------|
a|-2-2-2-2-2-2-2--6-6-6-6-6--2-2-2-2-2--4-4-4-4------------------------|
e|----------------4-4-4-4-4--0-0-0-0-0--2-2-2-2------------------------|

[ Tab from: http://www.guitaretab.com/f/frenzal-rhomb/98166.html ]
     chorus                 verse 2:
e|-----------------------|----------------------------------------------|
b|-----------------------|----------------------------------------------|
g|-4-4-4-4-----------6-4-|---------------4-4-4-4--------------4-4-4-4-4-|
d|-4-4-4-4-6-6-6-6-2-6-4-|-4-4--4-4--4-4-4-4-4-4--4-4-4-4-4-4-4-4-4-4-4-|
a|-2-2-2-2-6-6-6-6-2-4-2-|-4-4--4-4--4-4-2-2-2-2--4-4-4-4-4-4-2-2-2-2-2-|
e|---------4-4-4-4-0-----|-2-2--2-2--2-2----------2-2-2-2-2-2-----------|
                                                  palm
muted
     chorus
e|-----------------------|
b|-----------------------|
g|-4-4-4-4-----------6-4-|
d|-4-4-4-4-6-6-6-6-2-6-4-|
a|-2-2-2-2-6-6-6-6-2-4-2-|
e|---------4-4-4-4-0-----|


e|---------------------------------------------------------------------|
b|---------------------------------------------------------------------|
g|-6-6-6-6-6-8-6-6-6-6-8-----------------------------------------------|
d|------------------------6-6-6-6-6-6-8-6-6-6-6-6-6-8------------------|X2
a|---------------------------------------------------------------------|
e|---------------------------------------------------------------------|


e|---------------------------------------------------------------------|
b|-4-4-4-4-2-0-0-0-0-0-0-0---------------------------------------------|
g|-------------------------3-1-0-1-3-1---------------------------------|
d|-------------------------------------2-------------------------------|
a|---------------------------------------------------------------------|
e|---------------------------------------------------------------------|


downstrokes.
e|---------------------------------------------------------------------|
b|---------------------------------------------------------------------|
g|---------8-8-8-8-8------------------4-4-4-4--------------------------|
d|-2-2-2-2-8-8-8-8-8-6-6-6-6-2-2-2-2--4-4-4-4-4-4-4-4-2-2-2-2-5-5-5-5--|
a|-2-2-2-2-6-6-6-6-6-6-6-6-6-2-2-2-2--2-2-2-2-4-4-4-4-2-2-2-2-5-5-5-5--|
e|-0-0-0-0-----------4-4-4-4-0-0-0-0----------2-2-2-2-0-0-0-0-3-3-3-3--|


e|-----------------------|
b|-----------------------|
g|-4-4-4-4-----------6-4-|
d|-4-4-4-4-6-6-6-6-2-6-4-| repeat as needed
a|-2-2-2-2-6-6-6-6-2-4-2-|
e|---------4-4-4-4-0-----|

kristian012yahoo.com.au
Related for Bucket Bong tab
Advertisement will be closed in 10 seconds