Song name
# A B C D E F G H I J K L M N O P Q R S T U V W X Y Z

Fresno - Goodbye chords

Highlighted       Show chord diagrams
Tom: B
                
Intro:

      B9                        G#m                     C#m                        F#
E|-14-----------14-----------14----------14----------14----12-----11------------14----------|
B|----12-14-12-----12-14-12-----12-14-12----12-14-12----12----12-----12--14-12-----12-14-12-|
G|------------------------------------------------------------------------------------------|
D|------------------------------------------------------------------------------------------|
A|------------------------------------------------------------------------------------------|
E|------------------------------------------------------------------------------------------|


                    B9                       G#m                        C#m
E|-14-----------|14----12---11-----------14----12----11-------------14----------14----------|
B|----12-11-12--|---12---12---12--14-12-----12----12----12--14-12------12-14-12----12-14-12-|
G|--------------|---------------------------------------------------------------------------|
D|--------------|---------------------------------------------------------------------------|
A|--------------|---------------------------------------------------------------------------|
E|--------------|---------------------------------------------------------------------------|


    F#
E|-14----------14------------||
B|----12-14-12----12-11-12~--||
G|---------------------------||
D|---------------------------||
A|---------------------------||
E|---------------------------||


   B9
Um dia eu escrevi uma canção
        F#                   E
Que começava e terminava com goodbye
  B9
Fugi pra longe do teu coração
           F#                         E
Com essa angústia que não deixa o meu em paz

    G#m              B9
Pra que fugir se ninguém vai seguir
     F#                  E
Meus passos rumo a solidão
    G#m              B9
Pra que fingir que você vai me ouvir
    F#                E
Se nunca prestou atenção

Refrão:
                     B9              G#m
No tempo que eu perdi pensando em ti
        C#m              F#
Que serviu pra me ensinar
      E            B9              G#m
Mas tudo acaba aqui eu nunca previ
    C#m             F#
Achei que nunca iria dizer goodbye

Intro: B9  G#m  C#m  F#  B9  G#m  C#m  F#

G#m                   B9
  E vai ser sempre assim......(e vai ser sempre assim)
G#m                     B9
  Pois já faz parte de mim....(pois já faz parte de mim)
G#m                B9      F#   E
  O meu destino é sempre procurar

Refrão:
                      B9              G#m
No tempo que eu perdi pensando em ti
        C#m              F#
Que serviu pra me ensinar
      E            B9              G#m
Mas tudo acaba aqui eu nunca previ
    C#m             F#
Achei que nunca iria dizer goodbye

B9           G#m              C#m              F#
  Achei que nunca iria....(achei que nunca iria dizer goodbye)
B9           G#m              C#m              F#
  Achei que não.........(achei que nunca iria dizer goodbye)

( B9  G#m  C#m  F# )

    B
Goodbye
Tap to rate this tab
# A B C D E F G H I J K L M N O P Q R S T U V W X Y Z