Song name
# A B C D E F G H I J K L M N O P Q R S T U V W X Y Z

Freya - Sword tab

Help us improve GuitareTab! Take a short survey!
e ------------------------------------------------------|
B ------------------------------------------------------|
G ------------------------------------------------------|
D -------------------------------------------------5----|
A ----5h7-5h7-5h7h5-------------5h7-5h7-5h7h5-----------|
E -00-----------------7-5-3---00---------------7-5------|

e ------------------------------------------------------|
B ------------------------------------------------------|
G ------------------------------------------------------|
D ------------------------------------------------------|
A ----5h7-5h7-5h7h5-------------------------------------|
E -00-----------------7-5-3---5-5-3-5-3-5-3-5-3---------|

e ------------------------------------------------------|
B ------------------------------------------------------|
G -------------------------------------9---9-7-9-9------|
D -------------------------------------9---9-7-9-9------|
A -------------------------------------7---7-5-7-7------|
E -0-0-0-0-0-0-0-0-0-0-0-0-0-0-0-0-0-0--0-0-------------|

e -------------------------------------------------------|
B -------------------------------------------------------|
G ---------------9---9-7-9-9----------------9-10-12-10-9-|
D ---------------9---9-7-9-9----------------9-10-12-10-9-|
A ---------------7---7-5-7-7----------------7--8-10--8-7-|
E -0-0-0-0-0-0-0--0-0---------0-0-0-0-0-0-0--------------|

e ------------------------------------------------------|
B ------------------------------------------------------|
G -7--7--------------9-9-9-7-7-7------------------------|
D -7--7--------------9-9-9-7-7-7------5--------5h7h5----|
A -5--5--------------7-7-7-5-5-5--5h7---7--5h7----------|
E -------5-7-5-3---0------------------------------------|
Related for Sword tab