Song name
# A B C D E F G H I J K L M N O P Q R S T U V W X Y Z

Freya - Veritas tab

Freya
"Veritas"
Tune to drop C
Please message me if you find any errors.

D--------------|
A--------------|
F--------------|
C--1-0-4-3-1-3-|
G--1-0-4-3-1-3-|
C--1-0-4-3-1-3-|
		x2

D-----------------------------------------------------------------------|
A-----------------------------------------------------------------------|
F-7/8-8-8-8-7------------7/8-8-8-8-7------------.7/8-8-8-8-7------------|
C-------------0-0-0-1-0p--------------0-0-0-1-0p------------.0-0-0-1-0--|p
G-5/6-6-6-6-5-0-0-0-1-0p-5/6-6-6-6-5-.0-0-0-1-0p-5/6-6-6-6-5-0-0-0-1-0--|p
C-------------0-0-0-1-0p--------------0-0-0-1-0p------------.0-0-0-1-0--|p

D--------------|
A--------------|
F--------------|
C--1-0-4-3-1-3-|
G--1-0-4-3-1-3-|
C--1-0-4-3-1-3-|

D---------------------|
A---------------------|
F---------------------|
C-1-111-0p-0-0-0-1-0--|p
G-1-111-0p-0-0-0-1-0--|p
C-1-111-0p-0-0-0-1-0--|p
			x3

D------------------|
A------------------|
F------------------|
C--1-0-4-3-1-3-----|
G--1-0-4-3-1-3-----|
C--1-0-4-3-1-3-----|

D---------------------|
A---------------------|
F---------------------|
C-1-111-0p-0-0-0-1-0--|p
G-1-111-0p-0-0-0-1-0--|p
C-1-111-0p-0-0-0-1-0--|p
			x3

D--------------|
A--------------|
F--------------|
C--1-0-4-3-1-3-|
G--1-0-4-3-1-3-|
C--1-0-4-3-1-3-|

D-------------------------------|
A-------------------------------|
F-8-8-8-88-----8-8-8-88---------|
C-------------------------------|
G-6-6-6-66-----6-6-6-66----6----|b
C----------1-1---------1-1------|

D------------------------------|
A------------------------------|
F------------------------------|
C-000000000000----000000000000-|
G-000000000000-6b-000000000000-|
C-000000000000----000000000000-|

D--------------------------|
A--------------------------|
F-------------3-3-33-3--33-|
C-1-1-1-11-00-3-3-33-3--33-|
G-1-1-1-11-00-1-1-11-1--11-|
C-1-1-1-11-00-1-1-11-1--11-|
	        pm

D------------------------------|
A------------------------------|
F------------------------------|
C-000000000000-1-000000000000--|
G-000000000000-1-000000000000--|
C-000000000000-1-000000000000--|

D-----------------------------|
A-----------------------------|
F-----------------------------|
C--1-0-4-3-1-3-1-0-4-3-1-3-0~-|
G--1-0-4-3-1-3-1-0-4-3-1-3-0~-|
C--1-0-4-3-1-3-1-0-4-3-1-3-0~-|
Tap to rate this tab
# A B C D E F G H I J K L M N O P Q R S T U V W X Y Z