Song name
# A B C D E F G H I J K L M N O P Q R S T U V W X Y Z

Frida Gold - Breathe On tab

-------------------------------------------------------------------------------
			     BREATHE ON - Frida Gold
-------------------------------------------------------------------------------
Tabbed by: Jarom!r
Email: lionfalcon@web.de

Tuning: Standart




intro & verse
                                             when she said breathe on you play 2. instead of 1.
                                               1.             2.
e|-------------------------------------------|--------------|------------------|
B|--------4----------------------------------|-----------3--|------------------|
G|------5------------------------------------|--------------|--------4---------|
D|----5----------------3-----------3-------5-|-------5------|------------------|
A|--3------------6-------------6---------5---|----5---------|---5--------------|
E|------------4-----4--------6---6-----3-----|-3------------|-3----3-----------|

chorus (after she said breathe on)

e|-----------------------------------------------------------------------------|
B|--------4--------------------------------------------2-----------------------|
G|----5----------------3-----------------3----------2------2-------------------|
D|------5--------6---------6-------6-------------4------------4----------------|
A|-3-------------------------6-------------------------------------------------|
E|------------4-----4-----------6-----6------2---------------------------------|

thats it. pretty easy =)

offical site: http://www.fridagold.com/
Tap to rate this tab
 
# A B C D E F G H I J K L M N O P Q R S T U V W X Y Z