Song name
# A B C D E F G H I J K L M N O P Q R S T U V W X Y Z

Frida - Dunka Mig Gul Och Bl tab

|---0---------------------|---4---------------------|---5---------------------|---7---------------------|
|---0---------------------|---5---------------------|---5---------------------|---7---------------------|
|---1---------------------|---4---------------------|---6---------------------|---8---------------------|
|---2---------------------|---6---------------------|---5---------------------|---7---------------------|
|---2---------------------|---4---------------------|---7---------------------|---9---------------------|
|---5---------------------|---4---------------------|---5---------------------|---7---------------------|


|---0---------------------|---4---------------------|---5---------------------|---0---------------------|
|---0---------------------|---5---------------------|---5---------------------|---0---------------------|
|---1---------------------|---4---------------------|---6---------------------|---2---------------------|
|---2---------------------|---6---------------------|---5---------------------|---2---------------------|
|---2---------------------|---4---------------------|---7---------------------|---0---------------------|
|---5---------------------|---4---------------------|---5---------------------|---0---------------------|


Genom hela låten! 


Är inte helt säker på detta men på ett ungefär.. ;)
Tap to rate this tab
# A B C D E F G H I J K L M N O P Q R S T U V W X Y Z