Song name
# A B C D E F G H I J K L M N O P Q R S T U V W X Y Z

Friendly Fires - On Board tab

best song theyve done, its just an amazing Jam, so i suggest bands who want to learn 
just jam for ages, and eventually youll get there!


(u) - Bend upwards
 ~  - bend
 /  - Slide


the bass line is solid
------------|
------------|
------------|
------------|
------------|
-0-0-0-0----|

add a sly
--------------------|
--------------------|
--------------------|
--------------------|
-----------5---5----|
-0-0-0-0-3---3------|

guitar should get feedback throughout the song, at certain places of corse


the first guitar part comes at 1.48

--------------------------------15-------------------------------17---------|
---------------------------15(u)---15~~---------------------17(u)---17~-----|
--------12-------12-14~~~~---------------------12-----12-14~----------------|
--12-14----12-14-------------------------12-14---12-14----------------------|
----------------------------------------------------------------------------|
----------------------------------------------------------------------------|

the last ''climb on board''

-----------------------------------------------------------------7----------|
-----------------------------------------------7----7-10-7---1010-101010----|
-9-11~-----7--7/9-11~-----7-7/9-11~----7-----9---9--------------------------|
-------7-9----------7-9------------7-9--------------------------------------|
----------------------------------------------------------------------------|
----------------------------------------------------------------------------|


--7-10-7--10-12-10----|
----------------------|
----------------------|
----------------------|
----------------------|
----------------------|

that^^^^^^^^^^^^^^^^ is quite close to the real thing, however you could probleys get it 
by yourself using the PENTATONIC SCALE at the 7th fret instead of the 5th fret

PENTATONIC SCALE IS
---------------------5-8---|
-----------------5-8-------|
-------------5-7-----------|
---------5-7---------------|
-----5-7-------------------|
-5-8-----------------------|


so play about with the song, since it is a jam, you and your band can play this song for 
since its that much of a TUNE!!!!!!!!!

enjoy!
Tap to rate this tab
 
# A B C D E F G H I J K L M N O P Q R S T U V W X Y Z