Song name
# A B C D E F G H I J K L M N O P Q R S T U V W X Y Z

Friendly Fires - Skeleton Boy tab

Guitar part:

Verse:
e-----6-6-6--------------- ------------------4-4-4--6-6-6----------- -----|
B-----7-7-7--------------- ------------------6-6-6--7-7-7------------- ---|
G-----6-6-6----------------- ----------------5-5-5--6-6-6-----------------|
D------------------------ ------------------------------------- ----------|
A------------------------ ------------------------------------- ----------|
E------------------------ ------------------------------------- ----------|

Chorus:
e-----9----------9---------4-----------------------------|
B-----11---------9---------4-----------------------------|
G-----11-------- 10--------5-----------------------------|
D-----11-------- 11--------6-----------------------------|
A-----9--------- 11--------6-----------------------------|
E----------------9---------4-----------------------------|
     Gb (2bars) C# (1bar) Ab (1bar)



Synthesize thing during intro:
e------------------------- -16---------------------------------- -16-------------|
B----14-16--16-14--16-14-- -----(14)---------14-16--16-14--16-14- ------11-11----|
G------------------------- ------------------------------------- ----------------|
D------------------------- ------------------------------------- ----------------|
A------------------------- ------------------------------------- ----------------|
E------------------------- ------------------------------------- ----------------|

e------------------------------------------------------------------------|
B----14-16--16-14--16-14-- ------------------14-16--16-14--16-14---------|
G------------------------- ----------------------------------------------|
D------------------------- ----------------------------------------------|
A------------------------- ----------------------------------------------|
E------------------------- ----------------------------------------------|
Tap to rate this tab
 
# A B C D E F G H I J K L M N O P Q R S T U V W X Y Z