Song name
# A B C D E F G H I J K L M N O P Q R S T U V W X Y Z

Friendly Fires - Pull Me Back To Earth tab

i figured this out by ear so it may not be 100% correct because of the delay on the 
guitar, but im sure you can figure out the rhythm by listening to the song.


e-----------------------------------------------------------------|
B----------------------14-14--------------------------------------|
G-16--14-13----------13------13-14-13--------------(16)-----------|
D-----------16-14-16------------------16-14-----------------------|
A-------------------------------------------16--14~---------------|
E-----------------------------------------------------------------|

((16) every other)

and this is the riff at the end of the song.

e-----------------------------------------------------------------------|
B-------------------------------------------------------------------14~-|
G-16--14-13-14-13----------13-------------------------------13x-16x-----|
D-----------------16-14-16----14--------------------14x-16x-------------|
A--------------------------------16--14~----14x-16x---------------------|
E-----------------------------------------------------------------------|

and they play till the end of the song.

i hope this is of any help to you :)

please check out my band @ http://soundcloud.com/jonny-hunter-2
Tap to rate this tab
 
# A B C D E F G H I J K L M N O P Q R S T U V W X Y Z