Song name
# A B C D E F G H I J K L M N O P Q R S T U V W X Y Z

Friends - Friend Crush tab

Repeat this throughout the verse:

e|--9/11-11-9------9------------|
B|------------11-11--9-9-9p7-7--|
G|------------------------------|
D|------------------------------|
A|------------------------------|
E|------------------------------|

Sometimes there's this variation. 

e|--9/11-11-9------9------------|
B|------------11-11--9-9h11p9p7-|
G|------------------------------|
D|------------------------------|
A|------------------------------|
E|------------------------------|

Official Band page: http://afriendszone.com/
Tap to rate this tab
 
# A B C D E F G H I J K L M N O P Q R S T U V W X Y Z