Song name
# A B C D E F G H I J K L M N O P Q R S T U V W X Y Z

Frightened Rabbit - Poke tab

Artist: Frightened Rabbit
Song: Poke
Album: The Midnight Organ Fight
Tabbed by: Don Tago
Email: recebedou@yahoo.com

Tuning: EADGBe (Capo IV)

Intro:
e|--------------------------------------------------|
B|----1-----1-----1-----1-----1-----1-----1-----1---|
G|------0-----0-----0-----0-----0-----0-----0-----0-|
D|--------------------------------------------------|
A|--3-----3-----3-----3-----3-----3-----3-----3-----|
E|--------------------------------------------------|

Verses:
:Poke out my iris, so I can cry about this…
e|--------------------------------------------------------------|
B|----1-----1-----1-----1-----3-----3----3-----3-----6-----6----|
G|------0-----0-----0-----0-----0-----0----0-----0--------------|
D|-----------------------------------------------------7-----7--|
A|--3-----3-----3-----3-----5-----5-----5----5-----8-----8------|
E|--------------------------------------------------------------|

e|--------------------------------------|
B|----5-----5-----3-----3-----3-----3---|
G|------------------0-----0-----0-----0-|
D|--------------------------------------|
A|------7-----7-5-----5-----5-----5-----|
E|--8-----8-----------------------------|


Bridge/Solo:
:   Oooooh, oooooh…
e|-------------------------------------------------------------------------|
B|----1-----1-----1-----1-----3-----3----3-----3-----1-----1-----1-----1---|
G|------0-----0-----0-----0-----0-----0----0-----0-----0-----0-----0-----0-|
D|-------------------------------------------------------------------------| 
A|--3-----3-----3-----3-----5-----5-----5----5-----3-----3-----3-----3-----|
E|-------------------------------------------------------------------------|

then,

e|-----------------------------------------------------|
B|----5-----5-----5-----5-------3-----3-----3-----3----|
G|--------------------------------0-----0-----0-----0--| then,----|
D|-----------------------------------------------------|          |
A|------7-----7-----7-----7---5-----5-----5-----5------|          |
E|--8-----8-----8-----8--------------------------------|          |
                                                                  | 
e|---------------------------|                                    |--play 4x 
B|----1-----1-----1-----1----|                                    |
G|------0-----0-----0-----0--|                                    |
D|---------------------------|                                    |      
A|--3-----3-----3-----3------| -----------------------------------|
E|---------------------------|

Tap to rate this tab
# A B C D E F G H I J K L M N O P Q R S T U V W X Y Z