Song name
# A B C D E F G H I J K L M N O P Q R S T U V W X Y Z

Frightened Rabbit - The Modern Leper tab

----------------------------------------------------------------------------
		The Modern Leper - Frightened Rabbit
----------------------------------------------------------------------------

The other tabs I had a look at didn't sound quite right so this is how I play it. I 
be totally wrong but it sounds ok.
Listen to the song to get  the strum patterns perfect as I am not very good at tabbing them.

Drop D Tuning

Intro played instrumental x2 then x3 with vocals
e|-------------------------------------------------------------------|
B|-------------------------------------------------------------------|
G|-------------------------------------------------------------------|
D|-7-7-7-7-7-7-7-7-----------------------------7-7-7-7---------------|
A|-9-9-9-9-9-9-9-9-10-10-10-10-9-9-9-9-5-5-5-5-9-9-9-9---------------|
D|-0-0-0-0-0-0-0-0-8--8--8--8--9-9-9-9-5-5-5-5-0-0-0-0---------------|

then play intro ending x1
e|---------------------------------------------------------------------|
B|-----------------------------------------------------3-3-3-3-2-2-2-2-|
G|-----------------------------------------------------4-4-4-4-3-3-3-3-|
D|-7-7-7-7-7-7-7-7-------------------------------------x-x-x-x-x-x-x-x-|
A|-9-9-9-9-9-9-9-9-10-10-10-10-9-9-9-9-5-5-5-5-5-5-5-5-5-5-5-5-4-4-4-4-|
D|-0-0-0-0-0-0-0-0-8--8--8--8--9-9-9-9-5-5-5-5-5-5-5-5-5-5-5-5-4-4-4-4-|

then chorus x2
e|-----------------------------------------------------------------|
B|-----------------3-3-3-3-3-3-3-3-5-5-5-5-5-5-5-5-7-7-7-7-7-3-3-3-|
G|-7-7-7-7-7-7-7-7-4-4-4-4-4-4-4-4-6-6-6-6-6-6-6-6-7-7-7-7-7-4-4-4-|
D|-0-0-0-0-0-0-0-0-x-x-x-x-x-x-x-x-x-x-x-x-x-x-x-x-x-x-x-x-x-x-x-x-|
A|-0-0-0-0-0-0-0-0-5-5-5-5-5-5-5-5-7-7-7-7-7-7-7-7-9-9-9-9-9-5-5-5-|
D|-0-0-0-0-0-0-0-0-5-5-5-5-5-5-5-5-7-7-7-7-7-7-7-7-9-9-9-9-9-5-5-5-|


then verse instrumental x2 then with vocals x3
e|-------------------------------------------------------------------|
B|----------------------------------------3-3-3333-222---------------|
G|-7-7-7777-77-77-7--7---7--7--7--7-77-77-4-4-4444-333-77-7777-77-77-|
D|-0-0-0000-00-00-x--x---x--x--x--x-xx-xx-x-x-xxxx-xxx-00-0000-00-00-|
A|-0-0-0000-00-00-10-10--10-10-10-9-99-99-5-5-5555-444-00-0000-00-00-|
D|-0-0-0000-00-00-8--8---8--8--8--9-99-99-5-5-5555-444-00-0000-00-00-|

then verse ending x1
e|------------------------------------------------------------------------|
B|----------------------------------------3-3-3333-33-33-3-3-333-2-22-222-|
G|-7-7-7777-77-77-7--7---7--7--7--7-77-77-4-4-4444-44-44-4-4-444-4-44-444-|
D|-0-0-0000-00-00-x--x---x--x--x--x-xx-xx-x-x-xxxx-xx-xx-x-x-xxx-x-xx-xxx-|
A|-0-0-0000-00-00-10-10--10-10-10-9-99-99-5-5-5555-55-55-5-5-555-4-44-444-|
D|-0-0-0000-00-00-8--8---8--8--8--9-99-99-5-5-5555-55-55-5-5-555-4-44-444-|

then back to the chorus x4

then bridge x3
e|------------------------------------------|
B|----------------5-5-5557-77-77-33-3333-22-|
G|-7-7-7777-77-77-6-6-6667-77-77-44-4444-33-|
D|-0-0-0000-00-00-x-x-xxxx-xx-xx-xx-xxxx-xx-|
A|-0-0-0000-00-00-7-7-7779-99-99-55-5555-44-|
D|-0-0-0000-00-00-7-7-7779-99-99-55-5555-44-|

then bridge ending x1
e|--------------------------------------------------------------|
B|----------------5-5-5557-77-77-33-3333-33-33-3-3-333-2-22-222-|
G|-7-7-7777-77-77-6-6-6667-77-77-44-4444-44-44-4-4-444-3-33-333-|
D|-0-0-0000-00-00-x-x-xxxx-xx-xx-xx-xxxx-xx-xx-x-x-xxx-x-xx-xxx-|
A|-0-0-0000-00-00-7-7-7779-99-99-55-5555-55-55-5-5-555-4-44-444-|
D|-0-0-0000-00-00-7-7-7779-99-99-55-5555-55-55-5-5-555-4-44-444-|

then chorus x 4

then end on
e|---|
B|---|
G|-7-|
D|-0-|
A|-0-|
D|-0-|

Tabbed by Scott Walker
Any problems or suggestions email me at s.walker@sunderland.ac.uk
Tap to rate this tab
# A B C D E F G H I J K L M N O P Q R S T U V W X Y Z