Song name
# A B C D E F G H I J K L M N O P Q R S T U V W X Y Z

Frightened Rabbit - Fast Blood Acoustic tab

I tabbed this based *roughly* on the youtube video of Scott playing it acoustic. It is
perfect but it sounds pretty good, at least I think so. I play with my guitar in D tuning
standard will work fine.  I didn't actually show the rhythm. Just listen to the song to 
it, it is kind of a sporadic triplet thing haha I'm not gonna spell it out though, if
never heard this song then your most likely not going to be looking up the tab for it haha

Chord #1 = X07750
Chord #2 = 7X0770 and you hammer it off for 7X0750
Chord #3 = X00770 and you hammer it off for X00750
Chord #4 = 3X0230 (played during the chorus only)

Intro:
e|---0-0----0-0---0-0-----0-0-------------------|
B|---5-5----7h5---7h5-----5-5-------------------|
G|---7-7----7-7---7-7-----7-7-------------------|
D|---7-7----0-0---0-0-----7-7-------------------|
A|-0-0-0----x-x---0-0---0-0-0-------------------|
E|---x-x--7-7-7---x-x-----x-x-------------------| X2

Verse 1: Good night, it's stroke time...
e|---0-0----0-0---0-0-----0-0-------------------|
B|---5-5----7h5---7h5-----5-5-------------------|
G|---7-7----7-7---7-7-----7-7-------------------|
D|---7-7----0-0---0-0-----7-7-------------------|
A|-0-0-0----x-x---0-0---0-0-0-------------------|
E|---x-x--7-7-7---x-x-----x-x-------------------| X3

Chorus: And the fast blooooooooooooooooood...
e|--0-0---0-0---0-0---0-0---0-0---0-0---0-0-----|
B|--5-5---3-3---7h5---5-5---7h5---3-3---7-7-----|
G|--7-7---2-2---7-7---7-7---7-7---2-2---7-7-----|
D|--7-7---0-0---0-0---7-7---0-0---0-0---0-0-----|
A|--0-0---x-x---x-x---0-0---x-x---x-x---0-0-----|
E|--x-x---3-3---7-7---x-x---7-7---3-3---x-x-----|

Ohhhhh oh ohhhhh ohhhhh ohh...
e|--0-0---0-0---0-0---0-0-----------------------|
B|--5-5---7h5---3-3---7-7-----------------------|
G|--7-7---7-7---2-2---7-7-----------------------|
D|--7-7---0-0---0-0---0-0-----------------------|
A|--0-0---x-x---x-x---0-0-----------------------|
E|--x-x---7-7---3-3---x-x-----------------------|

The rest of the verses and choruses are the same so just refer back to the sections. And
ya have it!
Tap to rate this tab
 
# A B C D E F G H I J K L M N O P Q R S T U V W X Y Z